ISO-10303-21;
HEADER;
FILE_DESCRIPTION( ( 'Unknown' ), '1' );
FILE_NAME( 's:/LEAVE 2D&3D CAD/LEAVE 3D CAD (STEP)/Metric/BC-3D/BC14-3D/BC14-200125-150.stp', 'Unknown', ( 'Unknown' ), ( 'Unknown' ), 'XStep 1.0', 'Unknown', '  ' );
FILE_SCHEMA( ( 'CONFIG_CONTROL_DESIGN' ) );
ENDSEC;
DATA;
#1 = DESIGN_CONTEXT( '', #27, 'design' );
#2 = APPLICATION_PROTOCOL_DEFINITION( 'INTERNATIONAL STANDARD', 'config_control_design', 1994, #27 );
#3 = PRODUCT_CATEGORY_RELATIONSHIP( 'NONE', 'NONE', #28, #29 );
#4 = DATE_AND_TIME( #30, #31 );
#5 = DATE_TIME_ROLE( 'creation_date' );
#6 = DATE_TIME_ROLE( 'classification_date' );
#7 = PERSON_AND_ORGANIZATION_ROLE( 'creator' );
#8 = PERSON_AND_ORGANIZATION_ROLE( 'design_supplier' );
#9 = PERSON_AND_ORGANIZATION_ROLE( 'classification_officer' );
#10 = PERSON_AND_ORGANIZATION_ROLE( 'design_owner' );
#11 = APPROVAL_PERSON_ORGANIZATION( #32, #33, #34 );
#12 = APPROVAL_DATE_TIME( #4, #33 );
#13 = CC_DESIGN_APPROVAL( #33, ( #35, #36, #37 ) );
#14 = CC_DESIGN_DATE_AND_TIME_ASSIGNMENT( #4, #5, ( #37 ) );
#15 = CC_DESIGN_DATE_AND_TIME_ASSIGNMENT( #4, #6, ( #35 ) );
#16 = CC_DESIGN_PERSON_AND_ORGANIZATION_ASSIGNMENT( #32, #10, ( #38 ) );
#17 = CC_DESIGN_PERSON_AND_ORGANIZATION_ASSIGNMENT( #32, #7, ( #37 ) );
#18 = CC_DESIGN_PERSON_AND_ORGANIZATION_ASSIGNMENT( #32, #7, ( #36 ) );
#19 = CC_DESIGN_PERSON_AND_ORGANIZATION_ASSIGNMENT( #32, #8, ( #36 ) );
#20 = CC_DESIGN_SECURITY_CLASSIFICATION( #35, ( #36 ) );
#21 = CC_DESIGN_PERSON_AND_ORGANIZATION_ASSIGNMENT( #32, #9, ( #35 ) );
#22 = SHAPE_DEFINITION_REPRESENTATION( #39, #40 );
#23 =  ( GEOMETRIC_REPRESENTATION_CONTEXT( 3 )GLOBAL_UNCERTAINTY_ASSIGNED_CONTEXT( ( #43 ) )GLOBAL_UNIT_ASSIGNED_CONTEXT( ( #45, #46, #47 ) )REPRESENTATION_CONTEXT( 'NONE', 'WORKSPACE' ) );
#27 = APPLICATION_CONTEXT( 'CONFIGURATION CONTROLLED 3D DESIGNS OF MECHANICAL PARTS AND ASSEMBLIES' );
#28 = PRODUCT_CATEGORY( 'part', 'NONE' );
#29 = PRODUCT_RELATED_PRODUCT_CATEGORY( 'detail', ' ', ( #38 ) );
#30 = CALENDAR_DATE( 2007, 24, 11 );
#31 = LOCAL_TIME( 13, 14, 10.0000000000000, #49 );
#32 = PERSON_AND_ORGANIZATION( #50, #51 );
#33 = APPROVAL( #52, 'SOLID MODEL' );
#34 = APPROVAL_ROLE( 'APPROVED' );
#35 = SECURITY_CLASSIFICATION( '', '', #53 );
#36 = PRODUCT_DEFINITION_FORMATION_WITH_SPECIFIED_SOURCE( ' ', 'NONE', #38, .NOT_KNOWN. );
#37 = PRODUCT_DEFINITION( 'NONE', 'NONE', #36, #1 );
#38 = PRODUCT( '1', '1', 'PART-1-DESC', ( #54 ) );
#39 = PRODUCT_DEFINITION_SHAPE( 'NONE', 'NONE', #37 );
#40 = ADVANCED_BREP_SHAPE_REPRESENTATION( '1', ( #55, #56 ), #23 );
#43 = UNCERTAINTY_MEASURE_WITH_UNIT( LENGTH_MEASURE( 0.00100000000000000 ), #45, '', '' );
#45 =  ( CONVERSION_BASED_UNIT( 'MILLIMETRE', #59 )LENGTH_UNIT(  )NAMED_UNIT( #62 ) );
#46 =  ( NAMED_UNIT( #64 )PLANE_ANGLE_UNIT(  )SI_UNIT( $, .RADIAN. ) );
#47 =  ( NAMED_UNIT( #64 )SOLID_ANGLE_UNIT(  )SI_UNIT( $, .STERADIAN. ) );
#49 = COORDINATED_UNIVERSAL_TIME_OFFSET( 8, 0, .AHEAD. );
#50 = PERSON( '', 'UNSPECIFIED', $, $, $, $ );
#51 = ORGANIZATION( 'UNSPECIFIED', 'UNSPECIFIED', 'UNSPECIFIED' );
#52 = APPROVAL_STATUS( 'approved' );
#53 = SECURITY_CLASSIFICATION_LEVEL( 'unclassified' );
#54 = MECHANICAL_CONTEXT( '', #27, 'mechanical' );
#55 = MANIFOLD_SOLID_BREP( '1', #70 );
#56 = AXIS2_PLACEMENT_3D( '', #71, #72, #73 );
#59 = LENGTH_MEASURE_WITH_UNIT( LENGTH_MEASURE( 1.00000000000000 ), #74 );
#62 = DIMENSIONAL_EXPONENTS( 1.00000000000000, 0.000000000000000, 0.000000000000000, 0.000000000000000, 0.000000000000000, 0.000000000000000, 0.000000000000000 );
#64 = DIMENSIONAL_EXPONENTS( 0.000000000000000, 0.000000000000000, 0.000000000000000, 0.000000000000000, 0.000000000000000, 0.000000000000000, 0.000000000000000 );
#70 = CLOSED_SHELL( '', ( #75, #76, #77, #78, #79, #80, #81, #82, #83, #84, #85, #86, #87 ) );
#71 = CARTESIAN_POINT( '', ( 0.000000000000000, 0.000000000000000, 0.000000000000000 ) );
#72 = DIRECTION( '', ( 0.000000000000000, 0.000000000000000, 1.00000000000000 ) );
#73 = DIRECTION( '', ( 1.00000000000000, 0.000000000000000, 0.000000000000000 ) );
#74 =  ( NAMED_UNIT( #62 )LENGTH_UNIT(  )SI_UNIT( .MILLI., .METRE. ) );
#75 = ADVANCED_FACE( '', ( #89 ), #90, .F. );
#76 = ADVANCED_FACE( '', ( #91, #92 ), #93, .F. );
#77 = ADVANCED_FACE( '', ( #94 ), #95, .F. );
#78 = ADVANCED_FACE( '', ( #96 ), #97, .T. );
#79 = ADVANCED_FACE( '', ( #98 ), #99, .F. );
#80 = ADVANCED_FACE( '', ( #100 ), #101, .T. );
#81 = ADVANCED_FACE( '', ( #102, #103 ), #104, .T. );
#82 = ADVANCED_FACE( '', ( #105 ), #106, .F. );
#83 = ADVANCED_FACE( '', ( #107 ), #108, .F. );
#84 = ADVANCED_FACE( '', ( #109 ), #110, .F. );
#85 = ADVANCED_FACE( '', ( #111 ), #112, .F. );
#86 = ADVANCED_FACE( '', ( #113 ), #114, .T. );
#87 = ADVANCED_FACE( '', ( #115 ), #116, .F. );
#89 = FACE_OUTER_BOUND( '', #117, .T. );
#90 = PLANE( '', #118 );
#91 = FACE_BOUND( '', #119, .T. );
#92 = FACE_OUTER_BOUND( '', #120, .T. );
#93 = PLANE( '', #121 );
#94 = FACE_OUTER_BOUND( '', #122, .T. );
#95 = PLANE( '', #123 );
#96 = FACE_OUTER_BOUND( '', #124, .T. );
#97 = PLANE( '', #125 );
#98 = FACE_OUTER_BOUND( '', #126, .T. );
#99 = CYLINDRICAL_SURFACE( '', #127, 5.00000000000000 );
#100 = FACE_OUTER_BOUND( '', #128, .T. );
#101 = PLANE( '', #129 );
#102 = FACE_BOUND( '', #130, .T. );
#103 = FACE_OUTER_BOUND( '', #131, .T. );
#104 = PLANE( '', #132 );
#105 = FACE_OUTER_BOUND( '', #133, .T. );
#106 = CYLINDRICAL_SURFACE( '', #134, 5.00000000000000 );
#107 = FACE_OUTER_BOUND( '', #135, .T. );
#108 = CYLINDRICAL_SURFACE( '', #136, 5.00000000000000 );
#109 = FACE_OUTER_BOUND( '', #137, .T. );
#110 = PLANE( '', #138 );
#111 = FACE_OUTER_BOUND( '', #139, .T. );
#112 = PLANE( '', #140 );
#113 = FACE_OUTER_BOUND( '', #141, .T. );
#114 = PLANE( '', #142 );
#115 = FACE_OUTER_BOUND( '', #143, .T. );
#116 = PLANE( '', #144 );
#117 = EDGE_LOOP( '', ( #145, #146, #147, #148 ) );
#118 = AXIS2_PLACEMENT_3D( '', #149, #150, #151 );
#119 = EDGE_LOOP( '', ( #152, #153, #154, #155, #156, #157 ) );
#120 = EDGE_LOOP( '', ( #158, #159, #160, #161, #162 ) );
#121 = AXIS2_PLACEMENT_3D( '', #163, #164, #165 );
#122 = EDGE_LOOP( '', ( #166, #167, #168, #169 ) );
#123 = AXIS2_PLACEMENT_3D( '', #170, #171, #172 );
#124 = EDGE_LOOP( '', ( #173, #174, #175, #176 ) );
#125 = AXIS2_PLACEMENT_3D( '', #177, #178, #179 );
#126 = EDGE_LOOP( '', ( #180, #181, #182, #183 ) );
#127 = AXIS2_PLACEMENT_3D( '', #184, #185, #186 );
#128 = EDGE_LOOP( '', ( #187, #188, #189, #190 ) );
#129 = AXIS2_PLACEMENT_3D( '', #191, #192, #193 );
#130 = EDGE_LOOP( '', ( #194, #195, #196, #197, #198, #199 ) );
#131 = EDGE_LOOP( '', ( #200, #201, #202, #203, #204 ) );
#132 = AXIS2_PLACEMENT_3D( '', #205, #206, #207 );
#133 = EDGE_LOOP( '', ( #208, #209, #210, #211 ) );
#134 = AXIS2_PLACEMENT_3D( '', #212, #213, #214 );
#135 = EDGE_LOOP( '', ( #215, #216, #217, #218 ) );
#136 = AXIS2_PLACEMENT_3D( '', #219, #220, #221 );
#137 = EDGE_LOOP( '', ( #222, #223, #224, #225 ) );
#138 = AXIS2_PLACEMENT_3D( '', #226, #227, #228 );
#139 = EDGE_LOOP( '', ( #229, #230, #231, #232 ) );
#140 = AXIS2_PLACEMENT_3D( '', #233, #234, #235 );
#141 = EDGE_LOOP( '', ( #236, #237, #238, #239 ) );
#142 = AXIS2_PLACEMENT_3D( '', #240, #241, #242 );
#143 = EDGE_LOOP( '', ( #243, #244, #245, #246 ) );
#144 = AXIS2_PLACEMENT_3D( '', #247, #248, #249 );
#145 = ORIENTED_EDGE( '', *, *, #250, .T. );
#146 = ORIENTED_EDGE( '', *, *, #251, .F. );
#147 = ORIENTED_EDGE( '', *, *, #252, .F. );
#148 = ORIENTED_EDGE( '', *, *, #253, .T. );
#149 = CARTESIAN_POINT( '', ( -48.5000000000000, -75.0000000000000, 100.000000000000 ) );
#150 = DIRECTION( '', ( 0.000000000000000, 0.000000000000000, -1.00000000000000 ) );
#151 = DIRECTION( '', ( -1.00000000000000, 0.000000000000000, 0.000000000000000 ) );
#152 = ORIENTED_EDGE( '', *, *, #254, .T. );
#153 = ORIENTED_EDGE( '', *, *, #255, .T. );
#154 = ORIENTED_EDGE( '', *, *, #256, .T. );
#155 = ORIENTED_EDGE( '', *, *, #257, .T. );
#156 = ORIENTED_EDGE( '', *, *, #258, .T. );
#157 = ORIENTED_EDGE( '', *, *, #259, .T. );
#158 = ORIENTED_EDGE( '', *, *, #250, .F. );
#159 = ORIENTED_EDGE( '', *, *, #260, .F. );
#160 = ORIENTED_EDGE( '', *, *, #261, .F. );
#161 = ORIENTED_EDGE( '', *, *, #262, .F. );
#162 = ORIENTED_EDGE( '', *, *, #263, .F. );
#163 = CARTESIAN_POINT( '', ( -62.5000000000000, 75.0000000000000, 100.000000000000 ) );
#164 = DIRECTION( '', ( 0.000000000000000, -1.00000000000000, 0.000000000000000 ) );
#165 = DIRECTION( '', ( 0.000000000000000, 0.000000000000000, -1.00000000000000 ) );
#166 = ORIENTED_EDGE( '', *, *, #263, .T. );
#167 = ORIENTED_EDGE( '', *, *, #264, .F. );
#168 = ORIENTED_EDGE( '', *, *, #265, .F. );
#169 = ORIENTED_EDGE( '', *, *, #251, .T. );
#170 = CARTESIAN_POINT( '', ( -62.5000000000000, -75.0000000000000, 100.000000000000 ) );
#171 = DIRECTION( '', ( 1.00000000000000, 0.000000000000000, 0.000000000000000 ) );
#172 = DIRECTION( '', ( 0.000000000000000, 0.000000000000000, -1.00000000000000 ) );
#173 = ORIENTED_EDGE( '', *, *, #266, .T. );
#174 = ORIENTED_EDGE( '', *, *, #267, .T. );
#175 = ORIENTED_EDGE( '', *, *, #254, .F. );
#176 = ORIENTED_EDGE( '', *, *, #268, .T. );
#177 = CARTESIAN_POINT( '', ( -42.5000000000012, -75.0000000000000, 49.6618171280557 ) );
#178 = DIRECTION( '', ( 1.00000000000000, 0.000000000000000, 9.09760475205456E-015 ) );
#179 = DIRECTION( '', ( 9.09760475205456E-015, 0.000000000000000, -1.00000000000000 ) );
#180 = ORIENTED_EDGE( '', *, *, #269, .F. );
#181 = ORIENTED_EDGE( '', *, *, #268, .F. );
#182 = ORIENTED_EDGE( '', *, *, #259, .F. );
#183 = ORIENTED_EDGE( '', *, *, #270, .F. );
#184 = CARTESIAN_POINT( '', ( -37.5000000000010, -75.0000000000000, 31.0232173560142 ) );
#185 = DIRECTION( '', ( -0.000000000000000, 1.00000000000000, -0.000000000000000 ) );
#186 = DIRECTION( '', ( 0.000000000000000, 0.000000000000000, -1.00000000000000 ) );
#187 = ORIENTED_EDGE( '', *, *, #258, .F. );
#188 = ORIENTED_EDGE( '', *, *, #271, .T. );
#189 = ORIENTED_EDGE( '', *, *, #272, .T. );
#190 = ORIENTED_EDGE( '', *, *, #270, .T. );
#191 = CARTESIAN_POINT( '', ( 32.4607380271567, -75.0000000000000, -80.0000000000011 ) );
#192 = DIRECTION( '', ( -0.865734831114129, 0.000000000000000, -0.500502949237855 ) );
#193 = DIRECTION( '', ( -0.500502949237855, 0.000000000000000, 0.865734831114129 ) );
#194 = ORIENTED_EDGE( '', *, *, #273, .F. );
#195 = ORIENTED_EDGE( '', *, *, #274, .T. );
#196 = ORIENTED_EDGE( '', *, *, #266, .F. );
#197 = ORIENTED_EDGE( '', *, *, #269, .T. );
#198 = ORIENTED_EDGE( '', *, *, #272, .F. );
#199 = ORIENTED_EDGE( '', *, *, #275, .T. );
#200 = ORIENTED_EDGE( '', *, *, #252, .T. );
#201 = ORIENTED_EDGE( '', *, *, #265, .T. );
#202 = ORIENTED_EDGE( '', *, *, #276, .T. );
#203 = ORIENTED_EDGE( '', *, *, #277, .T. );
#204 = ORIENTED_EDGE( '', *, *, #278, .T. );
#205 = CARTESIAN_POINT( '', ( -62.5000000000000, -75.0000000000000, 100.000000000000 ) );
#206 = DIRECTION( '', ( 0.000000000000000, -1.00000000000000, 0.000000000000000 ) );
#207 = DIRECTION( '', ( 0.000000000000000, 0.000000000000000, -1.00000000000000 ) );
#208 = ORIENTED_EDGE( '', *, *, #274, .F. );
#209 = ORIENTED_EDGE( '', *, *, #279, .F. );
#210 = ORIENTED_EDGE( '', *, *, #255, .F. );
#211 = ORIENTED_EDGE( '', *, *, #267, .F. );
#212 = CARTESIAN_POINT( '', ( -37.5000000000000, -75.0000000000000, -75.0000000000000 ) );
#213 = DIRECTION( '', ( -0.000000000000000, 1.00000000000000, -0.000000000000000 ) );
#214 = DIRECTION( '', ( 0.000000000000000, 0.000000000000000, -1.00000000000000 ) );
#215 = ORIENTED_EDGE( '', *, *, #275, .F. );
#216 = ORIENTED_EDGE( '', *, *, #271, .F. );
#217 = ORIENTED_EDGE( '', *, *, #257, .F. );
#218 = ORIENTED_EDGE( '', *, *, #280, .F. );
#219 = CARTESIAN_POINT( '', ( 23.7946725339452, -75.0000000000000, -75.0000000000010 ) );
#220 = DIRECTION( '', ( -0.000000000000000, 1.00000000000000, -0.000000000000000 ) );
#221 = DIRECTION( '', ( 0.000000000000000, 0.000000000000000, -1.00000000000000 ) );
#222 = ORIENTED_EDGE( '', *, *, #262, .T. );
#223 = ORIENTED_EDGE( '', *, *, #281, .F. );
#224 = ORIENTED_EDGE( '', *, *, #276, .F. );
#225 = ORIENTED_EDGE( '', *, *, #264, .T. );
#226 = CARTESIAN_POINT( '', ( -62.5000000000000, -75.0000000000000, -100.000000000000 ) );
#227 = DIRECTION( '', ( 0.000000000000000, 0.000000000000000, 1.00000000000000 ) );
#228 = DIRECTION( '', ( 1.00000000000000, 0.000000000000000, 0.000000000000000 ) );
#229 = ORIENTED_EDGE( '', *, *, #261, .T. );
#230 = ORIENTED_EDGE( '', *, *, #282, .F. );
#231 = ORIENTED_EDGE( '', *, *, #277, .F. );
#232 = ORIENTED_EDGE( '', *, *, #281, .T. );
#233 = CARTESIAN_POINT( '', ( 62.5000000000000, -75.0000000000000, -100.000000000000 ) );
#234 = DIRECTION( '', ( -1.00000000000000, 0.000000000000000, 0.000000000000000 ) );
#235 = DIRECTION( '', ( 0.000000000000000, 0.000000000000000, 1.00000000000000 ) );
#236 = ORIENTED_EDGE( '', *, *, #256, .F. );
#237 = ORIENTED_EDGE( '', *, *, #279, .T. );
#238 = ORIENTED_EDGE( '', *, *, #273, .T. );
#239 = ORIENTED_EDGE( '', *, *, #280, .T. );
#240 = CARTESIAN_POINT( '', ( -42.5000000000000, -75.0000000000000, -80.0000000000000 ) );
#241 = DIRECTION( '', ( 1.48107269731382E-014, 0.000000000000000, 1.00000000000000 ) );
#242 = DIRECTION( '', ( 1.00000000000000, 0.000000000000000, -1.48107269731382E-014 ) );
#243 = ORIENTED_EDGE( '', *, *, #260, .T. );
#244 = ORIENTED_EDGE( '', *, *, #253, .F. );
#245 = ORIENTED_EDGE( '', *, *, #278, .F. );
#246 = ORIENTED_EDGE( '', *, *, #282, .T. );
#247 = CARTESIAN_POINT( '', ( 62.5000000000000, -75.0000000000000, -92.0000000000000 ) );
#248 = DIRECTION( '', ( -0.865734831114129, 0.000000000000000, -0.500502949237855 ) );
#249 = DIRECTION( '', ( -0.500502949237855, 0.000000000000000, 0.865734831114129 ) );
#250 = EDGE_CURVE( '', #283, #284, #285, .T. );
#251 = EDGE_CURVE( '', #286, #284, #287, .T. );
#252 = EDGE_CURVE( '', #288, #286, #289, .T. );
#253 = EDGE_CURVE( '', #288, #283, #290, .T. );
#254 = EDGE_CURVE( '', #291, #292, #293, .T. );
#255 = EDGE_CURVE( '', #292, #294, #295, .T. );
#256 = EDGE_CURVE( '', #294, #296, #297, .T. );
#257 = EDGE_CURVE( '', #296, #298, #299, .T. );
#258 = EDGE_CURVE( '', #298, #300, #301, .T. );
#259 = EDGE_CURVE( '', #300, #291, #302, .T. );
#260 = EDGE_CURVE( '', #303, #283, #304, .T. );
#261 = EDGE_CURVE( '', #305, #303, #306, .T. );
#262 = EDGE_CURVE( '', #307, #305, #308, .T. );
#263 = EDGE_CURVE( '', #284, #307, #309, .T. );
#264 = EDGE_CURVE( '', #310, #307, #311, .T. );
#265 = EDGE_CURVE( '', #286, #310, #312, .T. );
#266 = EDGE_CURVE( '', #313, #314, #315, .T. );
#267 = EDGE_CURVE( '', #314, #292, #316, .T. );
#268 = EDGE_CURVE( '', #291, #313, #317, .F. );
#269 = EDGE_CURVE( '', #313, #318, #319, .F. );
#270 = EDGE_CURVE( '', #318, #300, #320, .T. );
#271 = EDGE_CURVE( '', #298, #321, #322, .F. );
#272 = EDGE_CURVE( '', #321, #318, #323, .T. );
#273 = EDGE_CURVE( '', #324, #325, #326, .T. );
#274 = EDGE_CURVE( '', #324, #314, #327, .F. );
#275 = EDGE_CURVE( '', #321, #325, #328, .F. );
#276 = EDGE_CURVE( '', #310, #329, #330, .T. );
#277 = EDGE_CURVE( '', #329, #331, #332, .T. );
#278 = EDGE_CURVE( '', #331, #288, #333, .T. );
#279 = EDGE_CURVE( '', #294, #324, #334, .F. );
#280 = EDGE_CURVE( '', #325, #296, #335, .T. );
#281 = EDGE_CURVE( '', #329, #305, #336, .T. );
#282 = EDGE_CURVE( '', #331, #303, #337, .T. );
#283 = VERTEX_POINT( '', #338 );
#284 = VERTEX_POINT( '', #339 );
#285 = LINE( '', #340, #341 );
#286 = VERTEX_POINT( '', #342 );
#287 = LINE( '', #343, #344 );
#288 = VERTEX_POINT( '', #345 );
#289 = LINE( '', #346, #347 );
#290 = LINE( '', #348, #349 );
#291 = VERTEX_POINT( '', #350 );
#292 = VERTEX_POINT( '', #351 );
#293 = LINE( '', #352, #353 );
#294 = VERTEX_POINT( '', #354 );
#295 = CIRCLE( '', #355, 5.00000000000000 );
#296 = VERTEX_POINT( '', #356 );
#297 = LINE( '', #357, #358 );
#298 = VERTEX_POINT( '', #359 );
#299 = CIRCLE( '', #360, 5.00000000000000 );
#300 = VERTEX_POINT( '', #361 );
#301 = LINE( '', #362, #363 );
#302 = CIRCLE( '', #364, 5.00000000000000 );
#303 = VERTEX_POINT( '', #365 );
#304 = LINE( '', #366, #367 );
#305 = VERTEX_POINT( '', #368 );
#306 = LINE( '', #369, #370 );
#307 = VERTEX_POINT( '', #371 );
#308 = LINE( '', #372, #373 );
#309 = LINE( '', #374, #375 );
#310 = VERTEX_POINT( '', #376 );
#311 = LINE( '', #377, #378 );
#312 = LINE( '', #379, #380 );
#313 = VERTEX_POINT( '', #381 );
#314 = VERTEX_POINT( '', #382 );
#315 = LINE( '', #383, #384 );
#316 = LINE( '', #385, #386 );
#317 = LINE( '', #387, #388 );
#318 = VERTEX_POINT( '', #389 );
#319 = CIRCLE( '', #390, 5.00000000000000 );
#320 = LINE( '', #391, #392 );
#321 = VERTEX_POINT( '', #393 );
#322 = LINE( '', #394, #395 );
#323 = LINE( '', #396, #397 );
#324 = VERTEX_POINT( '', #398 );
#325 = VERTEX_POINT( '', #399 );
#326 = LINE( '', #400, #401 );
#327 = CIRCLE( '', #402, 5.00000000000000 );
#328 = CIRCLE( '', #403, 5.00000000000000 );
#329 = VERTEX_POINT( '', #404 );
#330 = LINE( '', #405, #406 );
#331 = VERTEX_POINT( '', #407 );
#332 = LINE( '', #408, #409 );
#333 = LINE( '', #410, #411 );
#334 = LINE( '', #412, #413 );
#335 = LINE( '', #414, #415 );
#336 = LINE( '', #416, #417 );
#337 = LINE( '', #418, #419 );
#338 = CARTESIAN_POINT( '', ( -48.5000000000000, 75.0000000000000, 100.000000000000 ) );
#339 = CARTESIAN_POINT( '', ( -62.5000000000000, 75.0000000000000, 100.000000000000 ) );
#340 = CARTESIAN_POINT( '', ( -48.5000000000000, 75.0000000000000, 100.000000000000 ) );
#341 = VECTOR( '', #420, 1000.00000000000 );
#342 = CARTESIAN_POINT( '', ( -62.5000000000000, -75.0000000000000, 100.000000000000 ) );
#343 = CARTESIAN_POINT( '', ( -62.5000000000000, -75.0000000000000, 100.000000000000 ) );
#344 = VECTOR( '', #421, 1000.00000000000 );
#345 = CARTESIAN_POINT( '', ( -48.5000000000000, -75.0000000000000, 100.000000000000 ) );
#346 = CARTESIAN_POINT( '', ( -48.5000000000000, -75.0000000000000, 100.000000000000 ) );
#347 = VECTOR( '', #422, 1000.00000000000 );
#348 = CARTESIAN_POINT( '', ( -48.5000000000000, -75.0000000000000, 100.000000000000 ) );
#349 = VECTOR( '', #423, 1000.00000000000 );
#350 = CARTESIAN_POINT( '', ( -42.5000000000010, 75.0000000000000, 31.0232173560142 ) );
#351 = CARTESIAN_POINT( '', ( -42.5000000000000, 75.0000000000000, -75.0000000000000 ) );
#352 = CARTESIAN_POINT( '', ( -42.5000000000012, 75.0000000000000, 49.6618171280557 ) );
#353 = VECTOR( '', #424, 1000.00000000000 );
#354 = CARTESIAN_POINT( '', ( -37.5000000000000, 75.0000000000000, -80.0000000000000 ) );
#355 = AXIS2_PLACEMENT_3D( '', #425, #426, #427 );
#356 = CARTESIAN_POINT( '', ( 23.7946725339452, 75.0000000000000, -80.0000000000010 ) );
#357 = CARTESIAN_POINT( '', ( -42.5000000000000, 75.0000000000000, -80.0000000000000 ) );
#358 = VECTOR( '', #428, 1000.00000000000 );
#359 = CARTESIAN_POINT( '', ( 28.1233466895159, 75.0000000000000, -72.4974852538117 ) );
#360 = AXIS2_PLACEMENT_3D( '', #429, #430, #431 );
#361 = CARTESIAN_POINT( '', ( -33.1713258444303, 75.0000000000000, 33.5257321022034 ) );
#362 = CARTESIAN_POINT( '', ( 32.4607380271567, 75.0000000000000, -80.0000000000011 ) );
#363 = VECTOR( '', #432, 1000.00000000000 );
#364 = AXIS2_PLACEMENT_3D( '', #433, #434, #435 );
#365 = CARTESIAN_POINT( '', ( 62.5000000000000, 75.0000000000000, -92.0000000000000 ) );
#366 = CARTESIAN_POINT( '', ( 62.5000000000000, 75.0000000000000, -92.0000000000000 ) );
#367 = VECTOR( '', #436, 1000.00000000000 );
#368 = CARTESIAN_POINT( '', ( 62.5000000000000, 75.0000000000000, -100.000000000000 ) );
#369 = CARTESIAN_POINT( '', ( 62.5000000000000, 75.0000000000000, -100.000000000000 ) );
#370 = VECTOR( '', #437, 1000.00000000000 );
#371 = CARTESIAN_POINT( '', ( -62.5000000000000, 75.0000000000000, -100.000000000000 ) );
#372 = CARTESIAN_POINT( '', ( -62.5000000000000, 75.0000000000000, -100.000000000000 ) );
#373 = VECTOR( '', #438, 1000.00000000000 );
#374 = CARTESIAN_POINT( '', ( -62.5000000000000, 75.0000000000000, 100.000000000000 ) );
#375 = VECTOR( '', #439, 1000.00000000000 );
#376 = CARTESIAN_POINT( '', ( -62.5000000000000, -75.0000000000000, -100.000000000000 ) );
#377 = CARTESIAN_POINT( '', ( -62.5000000000000, -75.0000000000000, -100.000000000000 ) );
#378 = VECTOR( '', #440, 1000.00000000000 );
#379 = CARTESIAN_POINT( '', ( -62.5000000000000, -75.0000000000000, 100.000000000000 ) );
#380 = VECTOR( '', #441, 1000.00000000000 );
#381 = CARTESIAN_POINT( '', ( -42.5000000000010, -75.0000000000000, 31.0232173560142 ) );
#382 = CARTESIAN_POINT( '', ( -42.5000000000000, -75.0000000000000, -75.0000000000000 ) );
#383 = CARTESIAN_POINT( '', ( -42.5000000000012, -75.0000000000000, 49.6618171280557 ) );
#384 = VECTOR( '', #442, 1000.00000000000 );
#385 = CARTESIAN_POINT( '', ( -42.5000000000000, 75.0000000000000, -75.0000000000000 ) );
#386 = VECTOR( '', #443, 1000.00000000000 );
#387 = CARTESIAN_POINT( '', ( -42.5000000000010, -75.0000000000000, 31.0232173560142 ) );
#388 = VECTOR( '', #444, 1000.00000000000 );
#389 = CARTESIAN_POINT( '', ( -33.1713258444303, -75.0000000000000, 33.5257321022034 ) );
#390 = AXIS2_PLACEMENT_3D( '', #445, #446, #447 );
#391 = CARTESIAN_POINT( '', ( -33.1713258444303, 75.0000000000000, 33.5257321022034 ) );
#392 = VECTOR( '', #448, 1000.00000000000 );
#393 = CARTESIAN_POINT( '', ( 28.1233466895159, -75.0000000000000, -72.4974852538117 ) );
#394 = CARTESIAN_POINT( '', ( 28.1233466895159, -75.0000000000000, -72.4974852538117 ) );
#395 = VECTOR( '', #449, 1000.00000000000 );
#396 = CARTESIAN_POINT( '', ( 32.4607380271567, -75.0000000000000, -80.0000000000011 ) );
#397 = VECTOR( '', #450, 1000.00000000000 );
#398 = CARTESIAN_POINT( '', ( -37.5000000000000, -75.0000000000000, -80.0000000000000 ) );
#399 = CARTESIAN_POINT( '', ( 23.7946725339452, -75.0000000000000, -80.0000000000010 ) );
#400 = CARTESIAN_POINT( '', ( -42.5000000000000, -75.0000000000000, -80.0000000000000 ) );
#401 = VECTOR( '', #451, 1000.00000000000 );
#402 = AXIS2_PLACEMENT_3D( '', #452, #453, #454 );
#403 = AXIS2_PLACEMENT_3D( '', #455, #456, #457 );
#404 = CARTESIAN_POINT( '', ( 62.5000000000000, -75.0000000000000, -100.000000000000 ) );
#405 = CARTESIAN_POINT( '', ( -62.5000000000000, -75.0000000000000, -100.000000000000 ) );
#406 = VECTOR( '', #458, 1000.00000000000 );
#407 = CARTESIAN_POINT( '', ( 62.5000000000000, -75.0000000000000, -92.0000000000000 ) );
#408 = CARTESIAN_POINT( '', ( 62.5000000000000, -75.0000000000000, -100.000000000000 ) );
#409 = VECTOR( '', #459, 1000.00000000000 );
#410 = CARTESIAN_POINT( '', ( 62.5000000000000, -75.0000000000000, -92.0000000000000 ) );
#411 = VECTOR( '', #460, 1000.00000000000 );
#412 = CARTESIAN_POINT( '', ( -37.5000000000000, -75.0000000000000, -80.0000000000000 ) );
#413 = VECTOR( '', #461, 1000.00000000000 );
#414 = CARTESIAN_POINT( '', ( 23.7946725339452, 75.0000000000000, -80.0000000000010 ) );
#415 = VECTOR( '', #462, 1000.00000000000 );
#416 = CARTESIAN_POINT( '', ( 62.5000000000000, -75.0000000000000, -100.000000000000 ) );
#417 = VECTOR( '', #463, 1000.00000000000 );
#418 = CARTESIAN_POINT( '', ( 62.5000000000000, -75.0000000000000, -92.0000000000000 ) );
#419 = VECTOR( '', #464, 1000.00000000000 );
#420 = DIRECTION( '', ( -1.00000000000000, 0.000000000000000, 0.000000000000000 ) );
#421 = DIRECTION( '', ( 0.000000000000000, 1.00000000000000, 0.000000000000000 ) );
#422 = DIRECTION( '', ( -1.00000000000000, 0.000000000000000, 0.000000000000000 ) );
#423 = DIRECTION( '', ( 0.000000000000000, 1.00000000000000, 0.000000000000000 ) );
#424 = DIRECTION( '', ( 9.09760475205456E-015, 0.000000000000000, -1.00000000000000 ) );
#425 = CARTESIAN_POINT( '', ( -37.5000000000000, 75.0000000000000, -75.0000000000000 ) );
#426 = DIRECTION( '', ( 0.000000000000000, -1.00000000000000, 0.000000000000000 ) );
#427 = DIRECTION( '', ( 0.000000000000000, 0.000000000000000, -1.00000000000000 ) );
#428 = DIRECTION( '', ( 1.00000000000000, 0.000000000000000, -1.48107269731382E-014 ) );
#429 = CARTESIAN_POINT( '', ( 23.7946725339452, 75.0000000000000, -75.0000000000010 ) );
#430 = DIRECTION( '', ( 0.000000000000000, -1.00000000000000, 0.000000000000000 ) );
#431 = DIRECTION( '', ( 0.000000000000000, 0.000000000000000, -1.00000000000000 ) );
#432 = DIRECTION( '', ( -0.500502949237855, 0.000000000000000, 0.865734831114129 ) );
#433 = CARTESIAN_POINT( '', ( -37.5000000000010, 75.0000000000000, 31.0232173560142 ) );
#434 = DIRECTION( '', ( 0.000000000000000, -1.00000000000000, 0.000000000000000 ) );
#435 = DIRECTION( '', ( 0.000000000000000, 0.000000000000000, -1.00000000000000 ) );
#436 = DIRECTION( '', ( -0.500502949237855, 0.000000000000000, 0.865734831114129 ) );
#437 = DIRECTION( '', ( 0.000000000000000, 0.000000000000000, 1.00000000000000 ) );
#438 = DIRECTION( '', ( 1.00000000000000, 0.000000000000000, 0.000000000000000 ) );
#439 = DIRECTION( '', ( 0.000000000000000, 0.000000000000000, -1.00000000000000 ) );
#440 = DIRECTION( '', ( 0.000000000000000, 1.00000000000000, 0.000000000000000 ) );
#441 = DIRECTION( '', ( 0.000000000000000, 0.000000000000000, -1.00000000000000 ) );
#442 = DIRECTION( '', ( 9.09760475205456E-015, 0.000000000000000, -1.00000000000000 ) );
#443 = DIRECTION( '', ( 0.000000000000000, 1.00000000000000, 0.000000000000000 ) );
#444 = DIRECTION( '', ( 0.000000000000000, 1.00000000000000, 0.000000000000000 ) );
#445 = CARTESIAN_POINT( '', ( -37.5000000000010, -75.0000000000000, 31.0232173560142 ) );
#446 = DIRECTION( '', ( 0.000000000000000, -1.00000000000000, 0.000000000000000 ) );
#447 = DIRECTION( '', ( 0.000000000000000, 0.000000000000000, -1.00000000000000 ) );
#448 = DIRECTION( '', ( 0.000000000000000, 1.00000000000000, 0.000000000000000 ) );
#449 = DIRECTION( '', ( 0.000000000000000, 1.00000000000000, 0.000000000000000 ) );
#450 = DIRECTION( '', ( -0.500502949237855, 0.000000000000000, 0.865734831114129 ) );
#451 = DIRECTION( '', ( 1.00000000000000, 0.000000000000000, -1.48107269731382E-014 ) );
#452 = CARTESIAN_POINT( '', ( -37.5000000000000, -75.0000000000000, -75.0000000000000 ) );
#453 = DIRECTION( '', ( 0.000000000000000, -1.00000000000000, 0.000000000000000 ) );
#454 = DIRECTION( '', ( 0.000000000000000, 0.000000000000000, -1.00000000000000 ) );
#455 = CARTESIAN_POINT( '', ( 23.7946725339452, -75.0000000000000, -75.0000000000010 ) );
#456 = DIRECTION( '', ( 0.000000000000000, -1.00000000000000, 0.000000000000000 ) );
#457 = DIRECTION( '', ( 0.000000000000000, 0.000000000000000, -1.00000000000000 ) );
#458 = DIRECTION( '', ( 1.00000000000000, 0.000000000000000, 0.000000000000000 ) );
#459 = DIRECTION( '', ( 0.000000000000000, 0.000000000000000, 1.00000000000000 ) );
#460 = DIRECTION( '', ( -0.500502949237855, 0.000000000000000, 0.865734831114129 ) );
#461 = DIRECTION( '', ( 0.000000000000000, 1.00000000000000, 0.000000000000000 ) );
#462 = DIRECTION( '', ( 0.000000000000000, 1.00000000000000, 0.000000000000000 ) );
#463 = DIRECTION( '', ( 0.000000000000000, 1.00000000000000, 0.000000000000000 ) );
#464 = DIRECTION( '', ( 0.000000000000000, 1.00000000000000, 0.000000000000000 ) );
ENDSEC;
END-ISO-10303-21;
