  0
SECTION
  2
HEADER
  9
$ACADVER
  1
AC1015
  9
$ACADMAINTVER
 70
     6
  9
$DWGCODEPAGE
  3
ANSI_1252
  9
$INSBASE
 10
0.0
 20
0.0
 30
0.0
  9
$EXTMIN
 10
0.0
 20
0.0
 30
0.0
  9
$EXTMAX
 10
594.0
 20
420.0
 30
0.0
  9
$LIMMIN
 10
0.0
 20
0.0
  9
$LIMMAX
 10
594.0
 20
420.0
  9
$ORTHOMODE
 70
     0
  9
$REGENMODE
 70
     1
  9
$FILLMODE
 70
     1
  9
$QTEXTMODE
 70
     0
  9
$MIRRTEXT
 70
     1
  9
$LTSCALE
 40
1.0
  9
$ATTMODE
 70
     1
  9
$TEXTSIZE
 40
0.2
  9
$TRACEWID
 40
0.05
  9
$TEXTSTYLE
  7
Standard
  9
$CLAYER
  8
0
  9
$CELTYPE
  6
ByLayer
  9
$CECOLOR
 62
   256
  9
$CELTSCALE
 40
25.4
  9
$DISPSILH
 70
     0
  9
$DIMSCALE
 40
1.0
  9
$DIMASZ
 40
0.18
  9
$DIMEXO
 40
0.0625
  9
$DIMDLI
 40
0.38
  9
$DIMRND
 40
0.0
  9
$DIMDLE
 40
0.0
  9
$DIMEXE
 40
0.18
  9
$DIMTP
 40
0.0
  9
$DIMTM
 40
0.0
  9
$DIMTXT
 40
0.18
  9
$DIMCEN
 40
0.09
  9
$DIMTSZ
 40
0.0
  9
$DIMTOL
 70
     0
  9
$DIMLIM
 70
     0
  9
$DIMTIH
 70
     1
  9
$DIMTOH
 70
     1
  9
$DIMSE1
 70
     0
  9
$DIMSE2
 70
     0
  9
$DIMTAD
 70
     0
  9
$DIMZIN
 70
     0
  9
$DIMBLK
  1

  9
$DIMASO
 70
     1
  9
$DIMSHO
 70
     1
  9
$DIMPOST
  1

  9
$DIMAPOST
  1

  9
$DIMALT
 70
     0
  9
$DIMALTD
 70
     2
  9
$DIMALTF
 40
25.4
  9
$DIMLFAC
 40
1.0
  9
$DIMTOFL
 70
     0
  9
$DIMTVP
 40
0.0
  9
$DIMTIX
 70
     0
  9
$DIMSOXD
 70
     0
  9
$DIMSAH
 70
     0
  9
$DIMBLK1
  1

  9
$DIMBLK2
  1

  9
$DIMSTYLE
  2
Standard
  9
$DIMCLRD
 70
     0
  9
$DIMCLRE
 70
     0
  9
$DIMCLRT
 70
     0
  9
$DIMTFAC
 40
1.0
  9
$DIMGAP
 40
0.09
  9
$DIMJUST
 70
     0
  9
$DIMSD1
 70
     0
  9
$DIMSD2
 70
     0
  9
$DIMTOLJ
 70
     1
  9
$DIMTZIN
 70
     0
  9
$DIMALTZ
 70
     0
  9
$DIMALTTZ
 70
     0
  9
$DIMUPT
 70
     0
  9
$DIMDEC
 70
     4
  9
$DIMTDEC
 70
     4
  9
$DIMALTU
 70
     2
  9
$DIMALTTD
 70
     2
  9
$DIMTXSTY
  7
Standard
  9
$DIMAUNIT
 70
     0
  9
$DIMADEC
 70
     0
  9
$DIMALTRND
 40
0.0
  9
$DIMAZIN
 70
     0
  9
$DIMDSEP
 70
    46
  9
$DIMATFIT
 70
     3
  9
$DIMFRAC
 70
     0
  9
$DIMLDRBLK
  1

  9
$DIMLUNIT
 70
     2
  9
$DIMLWD
 70
    -2
  9
$DIMLWE
 70
    -2
  9
$DIMTMOVE
 70
     0
  9
$LUNITS
 70
     2
  9
$LUPREC
 70
     4
  9
$SKETCHINC
 40
0.1
  9
$FILLETRAD
 40
0.5
  9
$AUNITS
 70
     0
  9
$AUPREC
 70
     0
  9
$MENU
  1
.
  9
$ELEVATION
 40
0.0
  9
$PELEVATION
 40
0.0
  9
$THICKNESS
 40
0.0
  9
$LIMCHECK
 70
     0
  9
$CHAMFERA
 40
0.5
  9
$CHAMFERB
 40
0.5
  9
$CHAMFERC
 40
1.0
  9
$CHAMFERD
 40
0.0
  9
$SKPOLY
 70
     0
  9
$TDCREATE
 40
2454910.392705903
  9
$TDUCREATE
 40
2454910.392705903
  9
$TDUPDATE
 40
2454910.392705915
  9
$TDUUPDATE
 40
2454910.392705915
  9
$TDINDWG
 40
0.0000000116
  9
$TDUSRTIMER
 40
0.0000000116
  9
$USRTIMER
 70
     1
  9
$ANGBASE
 50
0.0
  9
$ANGDIR
 70
     0
  9
$PDMODE
 70
     0
  9
$PDSIZE
 40
0.0
  9
$PLINEWID
 40
0.0
  9
$SPLFRAME
 70
     0
  9
$SPLINETYPE
 70
     6
  9
$SPLINESEGS
 70
     8
  9
$HANDSEED
  5
49A
  9
$SURFTAB1
 70
     6
  9
$SURFTAB2
 70
     6
  9
$SURFTYPE
 70
     6
  9
$SURFU
 70
     6
  9
$SURFV
 70
     6
  9
$UCSBASE
  2

  9
$UCSNAME
  2

  9
$UCSORG
 10
0.0
 20
0.0
 30
0.0
  9
$UCSXDIR
 10
1.0
 20
0.0
 30
0.0
  9
$UCSYDIR
 10
0.0
 20
1.0
 30
0.0
  9
$UCSORTHOREF
  2

  9
$UCSORTHOVIEW
 70
     0
  9
$UCSORGTOP
 10
0.0
 20
0.0
 30
0.0
  9
$UCSORGBOTTOM
 10
0.0
 20
0.0
 30
0.0
  9
$UCSORGLEFT
 10
0.0
 20
0.0
 30
0.0
  9
$UCSORGRIGHT
 10
0.0
 20
0.0
 30
0.0
  9
$UCSORGFRONT
 10
0.0
 20
0.0
 30
0.0
  9
$UCSORGBACK
 10
0.0
 20
0.0
 30
0.0
  9
$PUCSBASE
  2

  9
$PUCSNAME
  2

  9
$PUCSORG
 10
0.0
 20
0.0
 30
0.0
  9
$PUCSXDIR
 10
1.0
 20
0.0
 30
0.0
  9
$PUCSYDIR
 10
0.0
 20
1.0
 30
0.0
  9
$PUCSORTHOREF
  2

  9
$PUCSORTHOVIEW
 70
     0
  9
$PUCSORGTOP
 10
0.0
 20
0.0
 30
0.0
  9
$PUCSORGBOTTOM
 10
0.0
 20
0.0
 30
0.0
  9
$PUCSORGLEFT
 10
0.0
 20
0.0
 30
0.0
  9
$PUCSORGRIGHT
 10
0.0
 20
0.0
 30
0.0
  9
$PUCSORGFRONT
 10
0.0
 20
0.0
 30
0.0
  9
$PUCSORGBACK
 10
0.0
 20
0.0
 30
0.0
  9
$USERI1
 70
     0
  9
$USERI2
 70
     0
  9
$USERI3
 70
     0
  9
$USERI4
 70
     0
  9
$USERI5
 70
     0
  9
$USERR1
 40
0.0
  9
$USERR2
 40
0.0
  9
$USERR3
 40
0.0
  9
$USERR4
 40
0.0
  9
$USERR5
 40
0.0
  9
$WORLDVIEW
 70
     1
  9
$SHADEDGE
 70
     3
  9
$SHADEDIF
 70
    70
  9
$TILEMODE
 70
     1
  9
$MAXACTVP
 70
    64
  9
$PINSBASE
 10
0.0
 20
0.0
 30
0.0
  9
$PLIMCHECK
 70
     0
  9
$PEXTMIN
 10
0.0
 20
0.0
 30
0.0
  9
$PEXTMAX
 10
594.0
 20
420.0
 30
0.0
  9
$PLIMMIN
 10
0.0
 20
0.0
  9
$PLIMMAX
 10
594.0
 20
420.0
  9
$UNITMODE
 70
     0
  9
$VISRETAIN
 70
     1
  9
$PLINEGEN
 70
     0
  9
$PSLTSCALE
 70
     1
  9
$TREEDEPTH
 70
  3020
  9
$CMLSTYLE
  2
Standard
  9
$CMLJUST
 70
     0
  9
$CMLSCALE
 40
1.0
  9
$PROXYGRAPHICS
 70
     1
  9
$MEASUREMENT
 70
     1
  9
$CELWEIGHT
370
    -1
  9
$ENDCAPS
280
     0
  9
$JOINSTYLE
280
     0
  9
$LWDISPLAY
290
     0
  9
$INSUNITS
 70
     1
  9
$HYPERLINKBASE
  1

  9
$STYLESHEET
  1

  9
$XEDIT
290
     1
  9
$CEPSNTYPE
380
     0
  9
$PSTYLEMODE
290
     1
  9
$FINGERPRINTGUID
  2
{17B16002-314B-4DAE-A214-73263849671B}
  9
$VERSIONGUID
  2
{FAEB1C32-E019-11D5-929B-00C0DF256EC4}
  9
$EXTNAMES
290
     1
  9
$PSVPSCALE
 40
0.0
  9
$OLESTARTUP
290
     0
  0
ENDSEC
  0
SECTION
  2
CLASSES
  0
CLASS
  1
ACDBDICTIONARYWDFLT
  2
AcDbDictionaryWithDefault
  3
ObjectDBX Classes
 90
        0
280
     0
281
     0
  0
CLASS
  1
ACDBPLACEHOLDER
  2
AcDbPlaceHolder
  3
ObjectDBX Classes
 90
        0
280
     0
281
     0
  0
CLASS
  1
LAYOUT
  2
AcDbLayout
  3
ObjectDBX Classes
 90
        0
280
     0
281
     0
  0
ENDSEC
  0
SECTION
  2
TABLES
  0
TABLE
  2
VPORT
  5
8
330
0
100
AcDbSymbolTable
 70
     1
  0
VPORT
  5
29
330
8
100
AcDbSymbolTableRecord
100
AcDbViewportTableRecord
  2
*Active
 70
     0
 10
0.0
 20
0.0
 11
1.0
 21
1.0
 12
10.4299065421
 22
4.5
 13
0.0
 23
0.0
 14
0.5
 24
0.5
 15
0.5
 25
0.5
 16
0.0
 26
0.0
 36
1.0
 17
0.0
 27
0.0
 37
0.0
 40
9.0
 41
1.9729729729
 42
50.0
 43
0.0
 44
0.0
 50
0.0
 51
0.0
 71
     0
 72
   100
 73
     1
 74
     3
 75
     0
 76
     0
 77
     0
 78
     0
281
     0
 65
     1
110
0.0
120
0.0
130
0.0
111
1.0
121
0.0
131
0.0
112
0.0
122
1.0
132
0.0
 79
     0
146
0.0
  0
ENDTAB
  0
TABLE
  2
LTYPE
  5
5
330
0
100
AcDbSymbolTable
 70
     3
  0
LTYPE
  5
14
330
5
100
AcDbSymbolTableRecord
100
AcDbLinetypeTableRecord
  2
ByBlock
 70
     0
  3

 72
    65
 73
     0
 40
0.0
  0
LTYPE
  5
15
330
5
100
AcDbSymbolTableRecord
100
AcDbLinetypeTableRecord
  2
ByLayer
 70
     0
  3

 72
    65
 73
     0
 40
0.0
  0
LTYPE
  5
16
330
5
100
AcDbSymbolTableRecord
100
AcDbLinetypeTableRecord
  2
Continuous
 70
     0
  3
Solid line
 72
    65
 73
     0
 40
0.0
  0
LTYPE
  5
9B
330
5
100
AcDbSymbolTableRecord
100
AcDbLinetypeTableRecord
  2
CENTER2
 70
     0
  3
___ _ ___ _ ___ _ ___ _ ___ _ ___ _ ___ _ ___ _
 72
    65
 73
     4
 40
1.125
 49
0.75
 74
     4
 75
     0
340
0
 46
0.0
 50
0.0
 44
0.0
 45
0.0
 49
-0.125
 74
     4
 75
     0
340
0
 46
0.0
 50
0.0
 44
0.0
 45
0.0
 49
0.125
 74
     4
 75
     0
340
0
 46
0.0
 50
0.0
 44
0.0
 45
0.0
 49
-0.125
 74
     4
 75
     0
340
0
 46
0.0
 50
0.0
 44
0.0
 45
0.0
  0
LTYPE
  5
D8
330
5
100
AcDbSymbolTableRecord
100
AcDbLinetypeTableRecord
  2
HIDDEN2
 70
     0
  3
_ _ _ _ _ _ _ _ _ _ _ _ _ _ _ _ _ _ _ _ _ _ _ _
 72
    65
 73
     2
 40
0.1875
 49
0.125
 74
     4
 75
     0
340
0
 46
0.0
 50
0.0
 44
0.0
 45
0.0
 49
-0.0625
 74
     4
 75
     0
340
0
 46
0.0
 50
0.0
 44
0.0
 45
0.0
  0
ENDTAB
  0
TABLE
  2
LAYER
  5
2
330
0
100
AcDbSymbolTable
 70
     6
  0
LAYER
  5
10
330
2
100
AcDbSymbolTableRecord
100
AcDbLayerTableRecord
  2
0
 70
     0
 62
     7
  6
Continuous
370
    -3
390
F
  0
LAYER
  5
2A
330
2
100
AcDbSymbolTableRecord
100
AcDbLayerTableRecord
  2
Default
 70
     0
 62
     7
  6
Continuous
370
    -3
390
F
  0
LAYER
  5
54
330
2
100
AcDbSymbolTableRecord
100
AcDbLayerTableRecord
  2
DV1_Default
 70
     0
 62
     7
  6
Continuous
370
    -3
390
F
  0
LAYER
  5
194
330
2
100
AcDbSymbolTableRecord
100
AcDbLayerTableRecord
  2
DV2_Default
 70
     0
 62
     7
  6
Continuous
370
    -3
390
F
  0
LAYER
  5
253
330
2
100
AcDbSymbolTableRecord
100
AcDbLayerTableRecord
  2
DV3_Default
 70
     0
 62
     7
  6
Continuous
370
    -3
390
F
  0
LAYER
  5
489
330
2
100
AcDbSymbolTableRecord
100
AcDbLayerTableRecord
  2
BORDER
 70
     0
 62
     7
  6
Continuous
370
    -3
390
F
  0
ENDTAB
  0
TABLE
  2
STYLE
  5
3
330
0
100
AcDbSymbolTable
 70
     3
  0
STYLE
  5
11
330
3
100
AcDbSymbolTableRecord
100
AcDbTextStyleTableRecord
  2
Standard
 70
     0
 40
0.0
 41
1.0
 50
0.0
 71
     0
 42
0.2
  3
txt
  4

  0
STYLE
  5
31
330
3
100
AcDbSymbolTableRecord
100
AcDbTextStyleTableRecord
  2
SEACAD_arial_ttf
 70
     0
 40
0.2
 41
1.0
 50
0.0
 71
     0
 42
0.2
  3
arial.ttf
  4

  0
STYLE
  5
3BD
330
3
100
AcDbSymbolTableRecord
100
AcDbTextStyleTableRecord
  2
SEACAD_semeca1_ttf
 70
     0
 40
0.2
 41
1.0
 50
0.0
 71
     0
 42
0.2
  3
semeca1.ttf
  4

  0
ENDTAB
  0
TABLE
  2
VIEW
  5
6
330
0
100
AcDbSymbolTable
 70
     0
  0
ENDTAB
  0
TABLE
  2
UCS
  5
7
330
0
100
AcDbSymbolTable
 70
     0
  0
ENDTAB
  0
TABLE
  2
APPID
  5
9
330
0
100
AcDbSymbolTable
 70
     1
  0
APPID
  5
12
330
9
100
AcDbSymbolTableRecord
100
AcDbRegAppTableRecord
  2
ACAD
 70
     0
  0
ENDTAB
  0
TABLE
  2
DIMSTYLE
  5
A
330
0
100
AcDbSymbolTable
 70
     1
100
AcDbDimStyleTable
  0
DIMSTYLE
105
27
330
A
100
AcDbSymbolTableRecord
100
AcDbDimStyleTableRecord
  2
Standard
 70
     0
340
11
  0
ENDTAB
  0
TABLE
  2
BLOCK_RECORD
  5
1
330
0
100
AcDbSymbolTable
 70
    43
  0
BLOCK_RECORD
  5
1F
330
1
100
AcDbSymbolTableRecord
100
AcDbBlockTableRecord
  2
*Model_Space
340
22
  0
BLOCK_RECORD
  5
1B
330
1
100
AcDbSymbolTableRecord
100
AcDbBlockTableRecord
  2
*Paper_Space
340
1E
  0
BLOCK_RECORD
  5
2B
330
1
100
AcDbSymbolTableRecord
100
AcDbBlockTableRecord
  2
SEANNOT_GROUP
340
0
102
{BLKREFS
331
2C
102
}
  0
BLOCK_RECORD
  5
35
330
1
100
AcDbSymbolTableRecord
100
AcDbBlockTableRecord
  2
SEANNOT_GROUP1
340
0
102
{BLKREFS
331
36
102
}
  0
BLOCK_RECORD
  5
40
330
1
100
AcDbSymbolTableRecord
100
AcDbBlockTableRecord
  2
SEANNOT_GROUP2
340
0
102
{BLKREFS
331
41
102
}
  0
BLOCK_RECORD
  5
49
330
1
100
AcDbSymbolTableRecord
100
AcDbBlockTableRecord
  2
SEANNOT_GROUP3
340
0
102
{BLKREFS
331
4A
102
}
  0
BLOCK_RECORD
  5
52
330
1
100
AcDbSymbolTableRecord
100
AcDbBlockTableRecord
  2
SE
340
0
102
{BLKREFS
331
53
102
}
  0
BLOCK_RECORD
  5
192
330
1
100
AcDbSymbolTableRecord
100
AcDbBlockTableRecord
  2
SE1
340
0
102
{BLKREFS
331
193
102
}
  0
BLOCK_RECORD
  5
250
330
1
100
AcDbSymbolTableRecord
100
AcDbBlockTableRecord
  2
SE2
340
0
102
{BLKREFS
331
251
102
}
  0
BLOCK_RECORD
  5
2DE
330
1
100
AcDbSymbolTableRecord
100
AcDbBlockTableRecord
  2
GDimGGroup
340
0
102
{BLKREFS
331
2DF
102
}
  0
BLOCK_RECORD
  5
2EB
330
1
100
AcDbSymbolTableRecord
100
AcDbBlockTableRecord
  2
GDimGGroup1
340
0
102
{BLKREFS
331
2EC
102
}
  0
BLOCK_RECORD
  5
2F7
330
1
100
AcDbSymbolTableRecord
100
AcDbBlockTableRecord
  2
GDimGGroup2
340
0
102
{BLKREFS
331
2F8
102
}
  0
BLOCK_RECORD
  5
303
330
1
100
AcDbSymbolTableRecord
100
AcDbBlockTableRecord
  2
GDimGGroup3
340
0
102
{BLKREFS
331
304
102
}
  0
BLOCK_RECORD
  5
30F
330
1
100
AcDbSymbolTableRecord
100
AcDbBlockTableRecord
  2
GDimGGroup4
340
0
102
{BLKREFS
331
310
102
}
  0
BLOCK_RECORD
  5
31B
330
1
100
AcDbSymbolTableRecord
100
AcDbBlockTableRecord
  2
GDimGGroup5
340
0
102
{BLKREFS
331
31C
102
}
  0
BLOCK_RECORD
  5
327
330
1
100
AcDbSymbolTableRecord
100
AcDbBlockTableRecord
  2
GDimGGroup6
340
0
102
{BLKREFS
331
328
102
}
  0
BLOCK_RECORD
  5
333
330
1
100
AcDbSymbolTableRecord
100
AcDbBlockTableRecord
  2
GDimGGroup7
340
0
102
{BLKREFS
331
334
102
}
  0
BLOCK_RECORD
  5
33F
330
1
100
AcDbSymbolTableRecord
100
AcDbBlockTableRecord
  2
GDimGGroup8
340
0
102
{BLKREFS
331
340
102
}
  0
BLOCK_RECORD
  5
34B
330
1
100
AcDbSymbolTableRecord
100
AcDbBlockTableRecord
  2
GDimGGroup9
340
0
102
{BLKREFS
331
34C
102
}
  0
BLOCK_RECORD
  5
357
330
1
100
AcDbSymbolTableRecord
100
AcDbBlockTableRecord
  2
GDimGGroup10
340
0
102
{BLKREFS
331
358
102
}
  0
BLOCK_RECORD
  5
363
330
1
100
AcDbSymbolTableRecord
100
AcDbBlockTableRecord
  2
GDimGGroup11
340
0
102
{BLKREFS
331
364
102
}
  0
BLOCK_RECORD
  5
36D
330
1
100
AcDbSymbolTableRecord
100
AcDbBlockTableRecord
  2
GDimGGroup12
340
0
102
{BLKREFS
331
36E
102
}
  0
BLOCK_RECORD
  5
378
330
1
100
AcDbSymbolTableRecord
100
AcDbBlockTableRecord
  2
GDimGGroup13
340
0
102
{BLKREFS
331
379
102
}
  0
BLOCK_RECORD
  5
384
330
1
100
AcDbSymbolTableRecord
100
AcDbBlockTableRecord
  2
GDimGGroup14
340
0
102
{BLKREFS
331
385
102
}
  0
BLOCK_RECORD
  5
390
330
1
100
AcDbSymbolTableRecord
100
AcDbBlockTableRecord
  2
GDimGGroup15
340
0
102
{BLKREFS
331
391
102
}
  0
BLOCK_RECORD
  5
39C
330
1
100
AcDbSymbolTableRecord
100
AcDbBlockTableRecord
  2
GDimGGroup16
340
0
102
{BLKREFS
331
39D
102
}
  0
BLOCK_RECORD
  5
3A8
330
1
100
AcDbSymbolTableRecord
100
AcDbBlockTableRecord
  2
GDimGGroup17
340
0
102
{BLKREFS
331
3A9
102
}
  0
BLOCK_RECORD
  5
3B3
330
1
100
AcDbSymbolTableRecord
100
AcDbBlockTableRecord
  2
GDimGGroup18
340
0
102
{BLKREFS
331
3B4
102
}
  0
BLOCK_RECORD
  5
3C1
330
1
100
AcDbSymbolTableRecord
100
AcDbBlockTableRecord
  2
GDimGGroup19
340
0
102
{BLKREFS
331
3C2
102
}
  0
BLOCK_RECORD
  5
3CC
330
1
100
AcDbSymbolTableRecord
100
AcDbBlockTableRecord
  2
GDimGGroup20
340
0
102
{BLKREFS
331
3CD
102
}
  0
BLOCK_RECORD
  5
3D7
330
1
100
AcDbSymbolTableRecord
100
AcDbBlockTableRecord
  2
GDimGGroup21
340
0
102
{BLKREFS
331
3D8
102
}
  0
BLOCK_RECORD
  5
3E2
330
1
100
AcDbSymbolTableRecord
100
AcDbBlockTableRecord
  2
GDimGGroup22
340
0
102
{BLKREFS
331
3E3
102
}
  0
BLOCK_RECORD
  5
3EF
330
1
100
AcDbSymbolTableRecord
100
AcDbBlockTableRecord
  2
GDimGGroup23
340
0
102
{BLKREFS
331
3F0
102
}
  0
BLOCK_RECORD
  5
3FC
330
1
100
AcDbSymbolTableRecord
100
AcDbBlockTableRecord
  2
GDimGGroup24
340
0
102
{BLKREFS
331
3FD
102
}
  0
BLOCK_RECORD
  5
40A
330
1
100
AcDbSymbolTableRecord
100
AcDbBlockTableRecord
  2
GDimGGroup25
340
0
102
{BLKREFS
331
40B
102
}
  0
BLOCK_RECORD
  5
417
330
1
100
AcDbSymbolTableRecord
100
AcDbBlockTableRecord
  2
GDimGGroup26
340
0
102
{BLKREFS
331
418
102
}
  0
BLOCK_RECORD
  5
425
330
1
100
AcDbSymbolTableRecord
100
AcDbBlockTableRecord
  2
GDimGGroup27
340
0
102
{BLKREFS
331
426
102
}
  0
BLOCK_RECORD
  5
433
330
1
100
AcDbSymbolTableRecord
100
AcDbBlockTableRecord
  2
GDimGGroup28
340
0
102
{BLKREFS
331
434
102
}
  0
BLOCK_RECORD
  5
43F
330
1
100
AcDbSymbolTableRecord
100
AcDbBlockTableRecord
  2
GDimGGroup29
340
0
102
{BLKREFS
331
440
102
}
  0
BLOCK_RECORD
  5
44B
330
1
100
AcDbSymbolTableRecord
100
AcDbBlockTableRecord
  2
GDimGGroup30
340
0
102
{BLKREFS
331
44C
102
}
  0
BLOCK_RECORD
  5
457
330
1
100
AcDbSymbolTableRecord
100
AcDbBlockTableRecord
  2
GDimGGroup31
340
0
102
{BLKREFS
331
458
102
}
  0
BLOCK_RECORD
  5
463
330
1
100
AcDbSymbolTableRecord
100
AcDbBlockTableRecord
  2
GDimGGroup32
340
0
102
{BLKREFS
331
464
102
}
  0
BLOCK_RECORD
  5
46F
330
1
100
AcDbSymbolTableRecord
100
AcDbBlockTableRecord
  2
GDimGGroup33
340
0
102
{BLKREFS
331
470
102
}
  0
BLOCK_RECORD
  5
47B
330
1
100
AcDbSymbolTableRecord
100
AcDbBlockTableRecord
  2
GDimGGroup34
340
0
102
{BLKREFS
331
47C
102
}
  0
ENDTAB
  0
ENDSEC
  0
SECTION
  2
BLOCKS
  0
BLOCK
  5
20
330
1F
100
AcDbEntity
  8
0
100
AcDbBlockBegin
  2
*Model_Space
 70
     0
 71
     0
 10
0.0
 20
0.0
 30
0.0
  3
*Model_Space
  1

  0
ENDBLK
  5
21
330
1F
100
AcDbEntity
  8
0
100
AcDbBlockEnd
  0
BLOCK
  5
1C
330
1B
100
AcDbEntity
 67
     1
  8
0
100
AcDbBlockBegin
  2
*Paper_Space
 70
     0
 71
     0
 10
0.0
 20
0.0
 30
0.0
  3
*Paper_Space
  1

  0
ENDBLK
  5
1D
330
1B
100
AcDbEntity
 67
     1
  8
0
100
AcDbBlockEnd
  0
BLOCK
  5
33
330
2B
100
AcDbEntity
  8
0
100
AcDbBlockBegin
  2
SEANNOT_GROUP
 70
     0
 71
     0
 10
0.0
 20
0.0
 30
0.0
  3
SEANNOT_GROUP
  1

  0
LWPOLYLINE
  5
2D
330
2B
100
AcDbEntity
  8
Default
  6
Continuous
 62
     7
 48
25.4
100
AcDbPolyline
 90
        2
 70
     0
 43
0.0
 10
102.032869217
 20
231.9786666788
 10
114.6281544169
 20
249.5180565291
  0
HATCH
  5
2E
330
2B
100
AcDbEntity
  8
Default
  6
Continuous
 62
     7
 48
25.4
100
AcDbHatch
 10
0.0
 20
0.0
 30
0.0
210
0.0
220
0.0
230
1.0
  2
SOLID
 70
     1
 71
     0
 91
        1
 92
        1
 93
        3
 72
     1
 10
112.8364790893067
 20
245.8801525271708
 11
114.6281544169464
 21
249.518056529053
 72
     1
 10
114.6281544169464
 20
249.518056529053
 11
111.7534656469471
 21
246.6578798767773
 72
     1
 10
111.7534656469471
 20
246.6578798767773
 11
112.8364790893067
 21
245.8801525271708
 97
        0
 75
     0
 76
     1
 98
        0
  0
LWPOLYLINE
  5
2F
330
2B
100
AcDbEntity
  8
Default
  6
Continuous
 62
     7
 48
25.4
370
    20
100
AcDbPolyline
 90
        4
 70
     1
 43
0.0
 10
112.8364790893
 20
245.8801525272
 10
114.6281544169
 20
249.5180565291
 10
111.7534656469
 20
246.6578798768
 10
112.8364790893
 20
245.8801525272
  0
LINE
  5
30
330
2B
100
AcDbEntity
  8
Default
  6
Continuous
 62
     7
 48
25.4
100
AcDbLine
 10
102.032869217
 20
231.9786666788
 30
0.0
 11
84.0096899754
 21
231.9786666788
 31
0.0
  0
TEXT
  5
32
330
2B
100
AcDbEntity
  8
Default
  6
Continuous
 62
     7
 48
25.4
100
AcDbText
 10
84.0096899754
 20
232.9786666788
 30
0.0
 40
4.0
  1
6-M12
  7
SEACAD_arial_ttf
 11
84.0096899754
 21
236.9786666788
 31
0.0
100
AcDbText
 73
     3
  0
ENDBLK
  5
34
330
2B
100
AcDbEntity
  8
0
100
AcDbBlockEnd
  0
BLOCK
  5
3E
330
35
100
AcDbEntity
  8
0
100
AcDbBlockBegin
  2
SEANNOT_GROUP1
 70
     0
 71
     0
 10
0.0
 20
0.0
 30
0.0
  3
SEANNOT_GROUP1
  1

  0
LWPOLYLINE
  5
37
330
35
100
AcDbEntity
  8
Default
  6
Continuous
 62
     7
 48
25.4
100
AcDbPolyline
 90
        2
 70
     0
 43
0.0
 10
254.2376045287
 20
395.9068646823
 10
218.1204506758
 20
378.4543721177
  0
HATCH
  5
38
330
35
100
AcDbEntity
  8
Default
  6
Continuous
 62
     7
 48
25.4
100
AcDbHatch
 10
0.0
 20
0.0
 30
0.0
210
0.0
220
0.0
230
1.0
  2
SOLID
 70
     1
 71
     0
 91
        1
 92
        1
 93
        3
 72
     1
 10
221.431951285446
 20
380.794972408014
 11
218.1204506758409
 21
378.4543721176679
 72
     1
 10
218.1204506758409
 20
378.4543721176679
 11
222.0120648601741
 21
379.5944532756909
 72
     1
 10
222.0120648601741
 20
379.5944532756909
 11
221.431951285446
 21
380.794972408014
 97
        0
 75
     0
 76
     1
 98
        0
  0
LWPOLYLINE
  5
39
330
35
100
AcDbEntity
  8
Default
  6
Continuous
 62
     7
 48
25.4
370
    20
100
AcDbPolyline
 90
        4
 70
     1
 43
0.0
 10
221.4319512854
 20
380.794972408
 10
218.1204506758
 20
378.4543721177
 10
222.0120648602
 20
379.5944532757
 10
221.4319512854
 20
380.794972408
  0
LINE
  5
3A
330
35
100
AcDbEntity
  8
Default
  6
Continuous
 62
     7
 48
25.4
100
AcDbLine
 10
254.2376045287
 20
395.9068646823
 30
0.0
 11
326.0781842389
 21
395.9068646823
 31
0.0
  0
LINE
  5
3B
330
35
100
AcDbEntity
  8
Default
  6
Continuous
 62
     7
 48
25.4
100
AcDbLine
 10
218.1204506758
 20
376.7791831535
 30
0.0
 11
218.1204506758
 21
380.4543721177
 31
0.0
  0
TEXT
  5
3C
330
35
100
AcDbEntity
  8
Default
  6
Continuous
 62
     7
 48
25.4
100
AcDbText
 10
254.2376045287
 20
396.9068646823
 30
0.0
 40
4.0
  1
SERRATION PITCH 1.5X60
  7
SEACAD_arial_ttf
 11
254.2376045287
 21
400.9068646823
 31
0.0
100
AcDbText
 73
     3
  0
TEXT
  5
3D
330
35
100
AcDbEntity
  8
Default
  6
Continuous
 62
     7
 48
25.4
100
AcDbText
 10
324.4115175722
 20
396.9068646823
 30
0.0
 40
4.0
  1
°
  7
SEACAD_arial_ttf
 11
324.4115175722
 21
400.9068646823
 31
0.0
100
AcDbText
 73
     3
  0
ENDBLK
  5
3F
330
35
100
AcDbEntity
  8
0
100
AcDbBlockEnd
  0
BLOCK
  5
47
330
40
100
AcDbEntity
  8
0
100
AcDbBlockBegin
  2
SEANNOT_GROUP2
 70
     0
 71
     0
 10
0.0
 20
0.0
 30
0.0
  3
SEANNOT_GROUP2
  1

  0
LWPOLYLINE
  5
42
330
40
100
AcDbEntity
  8
Default
  6
Continuous
 62
     7
 48
25.4
100
AcDbPolyline
 90
        2
 70
     0
 43
0.0
 10
162.7472795656
 20
344.4382033271
 10
150.8352221181
 20
315.9017557346
  0
HATCH
  5
43
330
40
100
AcDbEntity
  8
Default
  6
Continuous
 62
     7
 48
25.4
100
AcDbHatch
 10
0.0
 20
0.0
 30
0.0
210
0.0
220
0.0
230
1.0
  2
SOLID
 70
     1
 71
     0
 91
        1
 92
        1
 93
        3
 72
     1
 10
151.7608768794283
 20
319.8498703820875
 11
150.8352221180527
 21
315.9017557346481
 72
     1
 10
150.8352221180527
 20
315.9017557346481
 11
152.9913111023073
 21
319.3362464244825
 72
     1
 10
152.9913111023073
 20
319.3362464244825
 11
151.7608768794283
 21
319.8498703820875
 97
        0
 75
     0
 76
     1
 98
        0
  0
LWPOLYLINE
  5
44
330
40
100
AcDbEntity
  8
Default
  6
Continuous
 62
     7
 48
25.4
370
    20
100
AcDbPolyline
 90
        4
 70
     1
 43
0.0
 10
151.7608768794
 20
319.8498703821
 10
150.8352221181
 20
315.9017557346
 10
152.9913111023
 20
319.3362464245
 10
151.7608768794
 20
319.8498703821
  0
LINE
  5
45
330
40
100
AcDbEntity
  8
Default
  6
Continuous
 62
     7
 48
25.4
100
AcDbLine
 10
162.7472795656
 20
344.4382033271
 30
0.0
 11
198.4864100004
 21
344.4382033271
 31
0.0
  0
TEXT
  5
46
330
40
100
AcDbEntity
  8
Default
  6
Continuous
 62
     7
 48
25.4
100
AcDbText
 10
162.7472795656
 20
345.4382033271
 30
0.0
 40
4.0
  1
MAX M75X2.0
  7
SEACAD_arial_ttf
 11
162.7472795656
 21
349.4382033271
 31
0.0
100
AcDbText
 73
     3
  0
ENDBLK
  5
48
330
40
100
AcDbEntity
  8
0
100
AcDbBlockEnd
  0
BLOCK
  5
50
330
49
100
AcDbEntity
  8
0
100
AcDbBlockBegin
  2
SEANNOT_GROUP3
 70
     0
 71
     0
 10
0.0
 20
0.0
 30
0.0
  3
SEANNOT_GROUP3
  1

  0
LWPOLYLINE
  5
4B
330
49
100
AcDbEntity
  8
Default
  6
Continuous
 62
     7
 48
25.4
100
AcDbPolyline
 90
        2
 70
     0
 43
0.0
 10
100.2798325841
 20
211.6434417373
 10
133.4208752381
 20
237.2635271545
  0
HATCH
  5
4C
330
49
100
AcDbEntity
  8
Default
  6
Continuous
 62
     7
 48
25.4
100
AcDbHatch
 10
0.0
 20
0.0
 30
0.0
210
0.0
220
0.0
230
1.0
  2
SOLID
 70
     1
 71
     0
 91
        1
 92
        1
 93
        3
 72
     1
 10
130.6639901498763
 20
234.2896356606659
 11
133.4208752381011
 21
237.2635271544677
 72
     1
 10
133.4208752381011
 20
237.2635271544677
 11
129.8485056161148
 21
235.344511445701
 72
     1
 10
129.8485056161149
 20
235.3445114457011
 11
130.6639901498763
 21
234.2896356606659
 97
        0
 75
     0
 76
     1
 98
        0
  0
LWPOLYLINE
  5
4D
330
49
100
AcDbEntity
  8
Default
  6
Continuous
 62
     7
 48
25.4
370
    20
100
AcDbPolyline
 90
        4
 70
     1
 43
0.0
 10
130.6639901499
 20
234.2896356607
 10
133.4208752381
 20
237.2635271545
 10
129.8485056161
 20
235.3445114457
 10
130.6639901499
 20
234.2896356607
  0
LINE
  5
4E
330
49
100
AcDbEntity
  8
Default
  6
Continuous
 62
     7
 48
25.4
100
AcDbLine
 10
100.2798325841
 20
211.6434417373
 30
0.0
 11
84.4537456275
 21
211.6434417373
 31
0.0
  0
TEXT
  5
4F
330
49
100
AcDbEntity
  8
Default
  6
Continuous
 62
     7
 48
25.4
100
AcDbText
 10
84.4537456275
 20
212.6434417373
 30
0.0
 40
4.0
  1
3-M16
  7
SEACAD_arial_ttf
 11
84.4537456275
 21
216.6434417373
 31
0.0
100
AcDbText
 73
     3
  0
ENDBLK
  5
51
330
49
100
AcDbEntity
  8
0
100
AcDbBlockEnd
  0
BLOCK
  5
190
330
52
100
AcDbEntity
  8
0
100
AcDbBlockBegin
  2
SE
 70
     0
 71
     0
 10
0.0
 20
0.0
 30
0.0
  3
SE
  1

  0
LINE
  5
55
330
52
100
AcDbEntity
  8
DV1_Default
  6
Continuous
 62
     7
 48
25.4
100
AcDbLine
 10
201.0245093779
 20
249.4591831535
 30
0.0
 11
201.0245093779
 21
241.9591831535
 31
0.0
  0
LINE
  5
56
330
52
100
AcDbEntity
  8
DV1_Default
  6
Continuous
 62
     7
 48
25.4
100
AcDbLine
 10
149.8937918191
 20
246.7144022412
 30
0.0
 11
149.8937918191
 21
241.9144043288
 31
0.0
  0
LINE
  5
57
330
52
100
AcDbEntity
  8
DV1_Default
  6
Continuous
 62
     7
 48
25.4
100
AcDbLine
 10
201.0245093779
 20
249.1591831535
 30
0.0
 11
210.0245093779
 21
249.1591831535
 31
0.0
  0
LINE
  5
58
330
52
100
AcDbEntity
  8
DV1_Default
  6
Continuous
 62
     7
 48
25.4
100
AcDbLine
 10
210.9245093779
 20
248.2591831535
 30
0.0
 11
210.9245093779
 21
241.9591831535
 31
0.0
  0
LINE
  5
59
330
52
100
AcDbEntity
  8
DV1_Default
  6
Continuous
 62
     7
 48
25.4
100
AcDbLine
 10
149.8937918191
 20
246.7591831535
 30
0.0
 11
201.0245093779
 21
246.7591831535
 31
0.0
  0
LINE
  5
5A
330
52
100
AcDbEntity
  8
DV1_Default
  6
Continuous
 62
     7
 48
25.4
100
AcDbLine
 10
123.6218941978
 20
246.1591831535
 30
0.0
 11
149.8937918191
 21
246.1591831535
 31
0.0
  0
LINE
  5
5B
330
52
100
AcDbEntity
  8
DV1_Default
  6
Continuous
 62
     7
 48
25.4
100
AcDbLine
 10
218.1204506758
 20
376.7791831535
 30
0.0
 11
247.8204506758
 21
376.7791831535
 31
0.0
  0
LINE
  5
5C
330
52
100
AcDbEntity
  8
DV1_Default
  6
Continuous
 62
     7
 48
25.4
100
AcDbLine
 10
247.8204506758
 20
376.7791831535
 30
0.0
 11
247.8204506758
 21
310.1791831535
 31
0.0
  0
LINE
  5
5D
330
52
100
AcDbEntity
  8
DV1_Default
  6
Continuous
 62
     7
 48
25.4
100
AcDbLine
 10
247.8204506758
 20
310.1791831535
 30
0.0
 11
219.0204506758
 21
310.1791831535
 31
0.0
  0
LINE
  5
5E
330
52
100
AcDbEntity
  8
DV1_Default
  6
Continuous
 62
     7
 48
25.4
100
AcDbLine
 10
217.8204506758
 20
316.0435395794
 30
0.0
 11
217.8204506758
 21
376.4791831535
 31
0.0
  0
LINE
  5
5F
330
52
100
AcDbEntity
  8
DV1_Default
  6
Continuous
 62
     7
 48
25.4
100
AcDbLine
 10
247.8204506758
 20
371.6791831535
 30
0.0
 11
228.0204506758
 21
371.6791831535
 31
0.0
  0
LINE
  5
60
330
52
100
AcDbEntity
  8
DV1_Default
  6
Continuous
 62
     7
 48
25.4
100
AcDbLine
 10
228.0204506758
 20
356.6791831535
 30
0.0
 11
247.8204506758
 21
356.6791831535
 31
0.0
  0
LINE
  5
61
330
52
100
AcDbEntity
  8
DV1_Default
  6
Continuous
 62
     7
 48
25.4
100
AcDbLine
 10
217.8204506758
 20
376.4791831535
 30
0.0
 11
218.1204506758
 21
376.7791831535
 31
0.0
  0
LINE
  5
62
330
52
100
AcDbEntity
  8
DV1_Default
  6
Continuous
 62
     7
 48
25.4
100
AcDbLine
 10
218.1204506758
 20
376.7791831535
 30
0.0
 11
218.1204506758
 21
315.7362952077
 31
0.0
  0
LINE
  5
63
330
52
100
AcDbEntity
  8
DV1_Default
  6
Continuous
 62
     7
 48
25.4
100
AcDbLine
 10
219.0204506758
 20
310.1791831535
 30
0.0
 11
219.0204506758
 21
315.5541235211
 31
0.0
  0
ARC
  5
64
330
52
100
AcDbEntity
  8
DV1_Default
  6
Continuous
 62
     7
 48
25.4
100
AcDbCircle
 10
218.7799780617
 20
316.680357311
 30
0.0
 40
1.151620435565075
100
AcDbArc
 50
213.5713759273
 51
282.0527642758
  0
LINE
  5
65
330
52
100
AcDbEntity
  8
DV1_Default
  6
Continuous
 62
     7
 48
25.4
100
AcDbLine
 10
220.2204506758
 20
351.6151806882
 30
0.0
 11
220.2204506758
 21
358.7769303283
 31
0.0
  0
LINE
  5
66
330
52
100
AcDbEntity
  8
DV1_Default
  6
Continuous
 62
     7
 48
25.4
100
AcDbLine
 10
227.4204506758
 20
369.2769303283
 30
0.0
 11
227.4204506758
 21
359.0769303283
 31
0.0
  0
LINE
  5
67
330
52
100
AcDbEntity
  8
DV1_Default
  6
Continuous
 62
     7
 48
25.4
100
AcDbLine
 10
228.0204506758
 20
369.5769303283
 30
0.0
 11
220.2204506758
 21
369.5769303283
 31
0.0
  0
LINE
  5
68
330
52
100
AcDbEntity
  8
DV1_Default
  6
Continuous
 62
     7
 48
25.4
100
AcDbLine
 10
220.2204506758
 20
369.5769303283
 30
0.0
 11
220.2204506758
 21
376.7791831535
 31
0.0
  0
LINE
  5
69
330
52
100
AcDbEntity
  8
DV1_Default
  6
Continuous
 62
     7
 48
25.4
100
AcDbLine
 10
228.0204506758
 20
371.6791831535
 30
0.0
 11
228.0204506758
 21
356.6791831535
 31
0.0
  0
LINE
  5
6A
330
52
100
AcDbEntity
  8
DV1_Default
  6
Continuous
 62
     7
 48
25.4
100
AcDbLine
 10
219.9204506758
 20
368.9769303283
 30
0.0
 11
227.4204506758
 21
368.9769303283
 31
0.0
  0
LINE
  5
6B
330
52
100
AcDbEntity
  8
DV1_Default
  6
Continuous
 62
     7
 48
25.4
100
AcDbLine
 10
228.0204506758
 20
358.7769303283
 30
0.0
 11
220.2204506758
 21
358.7769303283
 31
0.0
  0
LINE
  5
6C
330
52
100
AcDbEntity
  8
DV1_Default
  6
Continuous
 62
     7
 48
25.4
100
AcDbLine
 10
219.9204506758
 20
359.0769303283
 30
0.0
 11
228.0204506758
 21
359.0769303283
 31
0.0
  0
LINE
  5
6D
330
52
100
AcDbEntity
  8
DV1_Default
  6
Continuous
 62
     7
 48
25.4
100
AcDbLine
 10
219.9204506758
 20
359.3769303283
 30
0.0
 11
227.4204506758
 21
359.3769303283
 31
0.0
  0
LINE
  5
6E
330
52
100
AcDbEntity
  8
DV1_Default
  6
Continuous
 62
     7
 48
25.4
100
AcDbLine
 10
237.6204506758
 20
370.7791831535
 30
0.0
 11
237.6204506758
 21
357.5791831535
 31
0.0
  0
LINE
  5
6F
330
52
100
AcDbEntity
  8
DV1_Default
  6
Continuous
 62
     7
 48
25.4
100
AcDbLine
 10
237.0204506758
 20
371.3791831535
 30
0.0
 11
237.6204506758
 21
370.7791831535
 31
0.0
  0
LINE
  5
70
330
52
100
AcDbEntity
  8
DV1_Default
  6
Continuous
 62
     7
 48
25.4
100
AcDbLine
 10
237.0204506758
 20
356.9791831535
 30
0.0
 11
237.6204506758
 21
357.5791831535
 31
0.0
  0
LINE
  5
71
330
52
100
AcDbEntity
  8
DV1_Default
  6
Continuous
 62
     7
 48
25.4
100
AcDbLine
 10
237.0204506758
 20
371.3791831535
 30
0.0
 11
237.0204506758
 21
356.9791831535
 31
0.0
  0
LINE
  5
72
330
52
100
AcDbEntity
  8
DV1_Default
  6
Continuous
 62
     7
 48
25.4
100
AcDbLine
 10
247.8204506758
 20
338.7129278631
 30
0.0
 11
228.0204506758
 21
338.7129278631
 31
0.0
  0
LINE
  5
73
330
52
100
AcDbEntity
  8
DV1_Default
  6
Continuous
 62
     7
 48
25.4
100
AcDbLine
 10
228.0204506758
 20
353.7129278631
 30
0.0
 11
247.8204506758
 21
353.7129278631
 31
0.0
  0
LINE
  5
74
330
52
100
AcDbEntity
  8
DV1_Default
  6
Continuous
 62
     7
 48
25.4
100
AcDbLine
 10
218.1204506758
 20
337.5129278631
 30
0.0
 11
219.4704506758
 21
337.5129278631
 31
0.0
  0
LINE
  5
75
330
52
100
AcDbEntity
  8
DV1_Default
  6
Continuous
 62
     7
 48
25.4
100
AcDbLine
 10
227.4204506758
 20
341.1151806882
 30
0.0
 11
227.4204506758
 21
351.3151806882
 31
0.0
  0
LINE
  5
76
330
52
100
AcDbEntity
  8
DV1_Default
  6
Continuous
 62
     7
 48
25.4
100
AcDbLine
 10
228.0204506758
 20
340.8151806882
 30
0.0
 11
220.2204506758
 21
340.8151806882
 31
0.0
  0
LINE
  5
77
330
52
100
AcDbEntity
  8
DV1_Default
  6
Continuous
 62
     7
 48
25.4
100
AcDbLine
 10
228.0204506758
 20
338.7129278631
 30
0.0
 11
228.0204506758
 21
353.7129278631
 31
0.0
  0
LINE
  5
78
330
52
100
AcDbEntity
  8
DV1_Default
  6
Continuous
 62
     7
 48
25.4
100
AcDbLine
 10
228.0204506758
 20
341.1151806882
 30
0.0
 11
219.9204506758
 21
341.1151806882
 31
0.0
  0
LINE
  5
79
330
52
100
AcDbEntity
  8
DV1_Default
  6
Continuous
 62
     7
 48
25.4
100
AcDbLine
 10
219.9204506758
 20
341.4151806882
 30
0.0
 11
227.4204506758
 21
341.4151806882
 31
0.0
  0
LINE
  5
7A
330
52
100
AcDbEntity
  8
DV1_Default
  6
Continuous
 62
     7
 48
25.4
100
AcDbLine
 10
228.0204506758
 20
351.6151806882
 30
0.0
 11
220.2204506758
 21
351.6151806882
 31
0.0
  0
LINE
  5
7B
330
52
100
AcDbEntity
  8
DV1_Default
  6
Continuous
 62
     7
 48
25.4
100
AcDbLine
 10
219.9204506758
 20
351.3151806882
 30
0.0
 11
228.0204506758
 21
351.3151806882
 31
0.0
  0
LINE
  5
7C
330
52
100
AcDbEntity
  8
DV1_Default
  6
Continuous
 62
     7
 48
25.4
100
AcDbLine
 10
219.9204506758
 20
351.0151806882
 30
0.0
 11
227.4204506758
 21
351.0151806882
 31
0.0
  0
LINE
  5
7D
330
52
100
AcDbEntity
  8
DV1_Default
  6
Continuous
 62
     7
 48
25.4
100
AcDbLine
 10
228.0204506758
 20
338.7129278631
 30
0.0
 11
228.0204506758
 21
339.0129278631
 31
0.0
  0
LINE
  5
7E
330
52
100
AcDbEntity
  8
DV1_Default
  6
Continuous
 62
     7
 48
25.4
100
AcDbLine
 10
237.6204506758
 20
339.6129278631
 30
0.0
 11
237.6204506758
 21
352.8129278631
 31
0.0
  0
LINE
  5
7F
330
52
100
AcDbEntity
  8
DV1_Default
  6
Continuous
 62
     7
 48
25.4
100
AcDbLine
 10
237.0204506758
 20
339.0129278631
 30
0.0
 11
237.6204506758
 21
339.6129278631
 31
0.0
  0
LINE
  5
80
330
52
100
AcDbEntity
  8
DV1_Default
  6
Continuous
 62
     7
 48
25.4
100
AcDbLine
 10
237.0204506758
 20
353.4129278631
 30
0.0
 11
237.6204506758
 21
352.8129278631
 31
0.0
  0
LINE
  5
81
330
52
100
AcDbEntity
  8
DV1_Default
  6
Continuous
 62
     7
 48
25.4
100
AcDbLine
 10
237.0204506758
 20
339.0129278631
 30
0.0
 11
237.0204506758
 21
353.4129278631
 31
0.0
  0
LINE
  5
82
330
52
100
AcDbEntity
  8
DV1_Default
  6
Continuous
 62
     7
 48
25.4
100
AcDbLine
 10
220.2204506758
 20
340.8151806882
 30
0.0
 11
220.2204506758
 21
310.1791831535
 31
0.0
  0
LINE
  5
83
330
52
100
AcDbEntity
  8
DV1_Default
  6
Continuous
 62
     7
 48
25.4
100
AcDbLine
 10
215.4204506777
 20
202.1791831535
 30
0.0
 11
135.0204506777
 21
202.1791831535
 31
0.0
  0
LINE
  5
84
330
52
100
AcDbEntity
  8
DV1_Default
  6
Continuous
 62
     7
 48
25.4
100
AcDbLine
 10
218.1204506758
 20
372.8791831535
 30
0.0
 11
219.4704506758
 21
372.8791831535
 31
0.0
  0
LINE
  5
85
330
52
100
AcDbEntity
  8
DV1_Default
  6
Continuous
 62
     7
 48
25.4
100
AcDbLine
 10
219.4704506758
 20
372.8791831535
 30
0.0
 11
219.4704506758
 21
337.5129278631
 31
0.0
  0
LINE
  5
86
330
52
100
AcDbEntity
  8
DV1_Default
  6
Continuous
 62
     7
 48
25.4
100
AcDbLine
 10
228.0204506758
 20
369.2769303283
 30
0.0
 11
219.4704506758
 21
369.2769303283
 31
0.0
  0
LINE
  5
87
330
52
100
AcDbEntity
  8
DV1_Default
  6
Continuous
 62
     7
 48
25.4
100
AcDbLine
 10
219.9204506758
 20
368.9769303283
 30
0.0
 11
219.4704506758
 21
368.9769303283
 31
0.0
  0
LINE
  5
88
330
52
100
AcDbEntity
  8
DV1_Default
  6
Continuous
 62
     7
 48
25.4
100
AcDbLine
 10
219.9204506758
 20
359.3769303283
 30
0.0
 11
219.4704506758
 21
359.3769303283
 31
0.0
  0
LINE
  5
89
330
52
100
AcDbEntity
  8
DV1_Default
  6
Continuous
 62
     7
 48
25.4
100
AcDbLine
 10
219.9204506758
 20
359.0769303283
 30
0.0
 11
219.4704506758
 21
359.0769303283
 31
0.0
  0
LINE
  5
8A
330
52
100
AcDbEntity
  8
DV1_Default
  6
Continuous
 62
     7
 48
25.4
100
AcDbLine
 10
219.9204506758
 20
351.3151806882
 30
0.0
 11
219.4704506758
 21
351.3151806882
 31
0.0
  0
LINE
  5
8B
330
52
100
AcDbEntity
  8
DV1_Default
  6
Continuous
 62
     7
 48
25.4
100
AcDbLine
 10
219.9204506758
 20
351.0151806882
 30
0.0
 11
219.4704506758
 21
351.0151806882
 31
0.0
  0
LINE
  5
8C
330
52
100
AcDbEntity
  8
DV1_Default
  6
Continuous
 62
     7
 48
25.4
100
AcDbLine
 10
219.9204506758
 20
341.4151806882
 30
0.0
 11
219.4704506758
 21
341.4151806882
 31
0.0
  0
LINE
  5
8D
330
52
100
AcDbEntity
  8
DV1_Default
  6
Continuous
 62
     7
 48
25.4
100
AcDbLine
 10
219.9204506758
 20
341.1151806882
 30
0.0
 11
219.4704506758
 21
341.1151806882
 31
0.0
  0
LINE
  5
8E
330
52
100
AcDbEntity
  8
DV1_Default
  6
Continuous
 62
     7
 48
25.4
100
AcDbLine
 10
218.1204506758
 20
376.7791831535
 30
0.0
 11
218.1204506758
 21
384.5791831535
 31
0.0
  0
LINE
  5
8F
330
52
100
AcDbEntity
  8
DV1_Default
  6
Continuous
 62
     7
 48
25.4
100
AcDbLine
 10
218.1204506758
 20
384.5791831535
 30
0.0
 11
218.1204506758
 21
387.2791831535
 31
0.0
  0
LINE
  5
90
330
52
100
AcDbEntity
  8
DV1_Default
  6
Continuous
 62
     7
 48
25.4
100
AcDbLine
 10
217.8204506758
 20
387.5791831535
 30
0.0
 11
188.1204506758
 21
387.5791831535
 31
0.0
  0
LINE
  5
91
330
52
100
AcDbEntity
  8
DV1_Default
  6
Continuous
 62
     7
 48
25.4
100
AcDbLine
 10
188.1204506758
 20
387.5791831535
 30
0.0
 11
188.1204506758
 21
384.5791831535
 31
0.0
  0
LINE
  5
92
330
52
100
AcDbEntity
  8
DV1_Default
  6
Continuous
 62
     7
 48
25.4
100
AcDbLine
 10
218.1204506758
 20
387.2791831535
 30
0.0
 11
217.8204506758
 21
387.5791831535
 31
0.0
  0
LINE
  5
93
330
52
100
AcDbEntity
  8
DV1_Default
  6
Continuous
 62
     7
 48
25.4
100
AcDbLine
 10
217.8204506758
 20
387.5791831535
 30
0.0
 11
217.8204506758
 21
376.4791831535
 31
0.0
  0
LINE
  5
94
330
52
100
AcDbEntity
  8
DV1_Default
  6
Continuous
 62
     7
 48
25.4
100
AcDbLine
 10
133.8204506777
 20
227.3791831535
 30
0.0
 11
133.8204506777
 21
203.3791831535
 31
0.0
  0
LINE
  5
95
330
52
100
AcDbEntity
  8
DV1_Default
  6
Continuous
 62
     7
 48
25.4
100
AcDbLine
 10
133.8204506777
 20
203.3791831535
 30
0.0
 11
135.0204506777
 21
202.1791831535
 31
0.0
  0
LINE
  5
96
330
52
100
AcDbEntity
  8
DV1_Default
  6
Continuous
 62
     7
 48
25.4
100
AcDbLine
 10
216.6204506777
 20
203.3791831535
 30
0.0
 11
215.4204506777
 21
202.1791831535
 31
0.0
  0
LINE
  5
97
330
52
100
AcDbEntity
  8
DV1_Default
  6
Continuous
 62
     7
 48
25.4
100
AcDbLine
 10
149.8937918191
 20
246.7591831535
 30
0.0
 11
123.6218941978
 21
246.7591831535
 31
0.0
  0
LINE
  5
98
330
52
100
AcDbEntity
  8
DV1_Default
  6
Continuous
 62
     7
 48
25.4
100
AcDbLine
 10
201.0245093779
 20
246.7591831535
 30
0.0
 11
201.0245093779
 21
247.0591831535
 31
0.0
  0
LINE
  5
99
330
52
100
AcDbEntity
  8
DV1_Default
  6
Continuous
 62
     7
 48
25.4
100
AcDbLine
 10
201.0245093779
 20
247.0591831535
 30
0.0
 11
137.1804506777
 21
247.0591831535
 31
0.0
  0
LINE
  5
9A
330
52
100
AcDbEntity
  8
DV1_Default
  6
Continuous
 62
     7
 48
25.4
100
AcDbLine
 10
201.0245093779
 20
249.4591831535
 30
0.0
 11
216.6204506777
 21
249.4591831535
 31
0.0
  0
LINE
  5
9C
330
52
100
AcDbEntity
  8
DV1_Default
  6
CENTER2
 62
     7
 48
25.4
100
AcDbLine
 10
102.4041140607
 20
293.3791831535
 30
0.0
 11
251.4562516245
 21
293.3791831535
 31
0.0
  0
LINE
  5
9D
330
52
100
AcDbEntity
  8
DV1_Default
  6
Continuous
 62
     7
 48
25.4
100
AcDbLine
 10
216.6204506777
 20
273.2791831535
 30
0.0
 11
216.6204506777
 21
203.3791831535
 31
0.0
  0
LINE
  5
9E
330
52
100
AcDbEntity
  8
DV1_Default
  6
Continuous
 62
     7
 48
25.4
100
AcDbLine
 10
201.0245093779
 20
234.4591831535
 30
0.0
 11
201.0245093779
 21
241.9591831535
 31
0.0
  0
LINE
  5
9F
330
52
100
AcDbEntity
  8
DV1_Default
  6
Continuous
 62
     7
 48
25.4
100
AcDbLine
 10
201.0245093779
 20
234.7591831535
 30
0.0
 11
210.0245093779
 21
234.7591831535
 31
0.0
  0
LINE
  5
A0
330
52
100
AcDbEntity
  8
DV1_Default
  6
Continuous
 62
     7
 48
25.4
100
AcDbLine
 10
210.9245093779
 20
235.6591831535
 30
0.0
 11
210.9245093779
 21
241.9591831535
 31
0.0
  0
LINE
  5
A1
330
52
100
AcDbEntity
  8
DV1_Default
  6
Continuous
 62
     7
 48
25.4
100
AcDbLine
 10
201.0245093779
 20
237.2039640658
 30
0.0
 11
201.0245093779
 21
236.9039640658
 31
0.0
  0
LINE
  5
A2
330
52
100
AcDbEntity
  8
DV1_Default
  6
Continuous
 62
     7
 48
25.4
100
AcDbLine
 10
201.0245093779
 20
234.4591831535
 30
0.0
 11
216.6204506777
 21
234.4591831535
 31
0.0
  0
LINE
  5
A3
330
52
100
AcDbEntity
  8
DV1_Default
  6
Continuous
 62
     7
 48
25.4
100
AcDbLine
 10
201.0245093779
 20
241.9591831535
 30
0.0
 11
201.0245093779
 21
247.0591831535
 31
0.0
  0
LINE
  5
A4
330
52
100
AcDbEntity
  8
DV1_Default
  6
Continuous
 62
     7
 48
25.4
100
AcDbLine
 10
201.0245093779
 20
234.4591831535
 30
0.0
 11
201.0245093779
 21
241.9591831535
 31
0.0
  0
LINE
  5
A5
330
52
100
AcDbEntity
  8
DV1_Default
  6
Continuous
 62
     7
 48
25.4
100
AcDbLine
 10
149.8937918191
 20
237.2039640658
 30
0.0
 11
149.8937918191
 21
242.0039619781
 31
0.0
  0
LINE
  5
A6
330
52
100
AcDbEntity
  8
DV1_Default
  6
Continuous
 62
     7
 48
25.4
100
AcDbLine
 10
149.8937918191
 20
237.1591831535
 30
0.0
 11
201.0245093779
 21
237.1591831535
 31
0.0
  0
LINE
  5
A7
330
52
100
AcDbEntity
  8
DV1_Default
  6
Continuous
 62
     7
 48
25.4
100
AcDbLine
 10
123.6218941978
 20
237.7591831535
 30
0.0
 11
149.8937918191
 21
237.7591831535
 31
0.0
  0
LINE
  5
A8
330
52
100
AcDbEntity
  8
DV1_Default
  6
Continuous
 62
     7
 48
25.4
100
AcDbLine
 10
149.8937918191
 20
237.1591831535
 30
0.0
 11
123.6218941978
 21
237.1591831535
 31
0.0
  0
LINE
  5
A9
330
52
100
AcDbEntity
  8
DV1_Default
  6
Continuous
 62
     7
 48
25.4
100
AcDbLine
 10
201.0245093779
 20
237.1591831535
 30
0.0
 11
201.0245093779
 21
236.8591831535
 31
0.0
  0
LINE
  5
AA
330
52
100
AcDbEntity
  8
DV1_Default
  6
Continuous
 62
     7
 48
25.4
100
AcDbLine
 10
201.0245093779
 20
236.8591831535
 30
0.0
 11
137.1804506777
 21
236.8591831535
 31
0.0
  0
LINE
  5
AB
330
52
100
AcDbEntity
  8
DV1_Default
  6
Continuous
 62
     7
 48
25.4
100
AcDbLine
 10
201.0245093779
 20
241.9591831535
 30
0.0
 11
201.0245093779
 21
236.8591831535
 31
0.0
  0
ARC
  5
AC
330
52
100
AcDbEntity
  8
DV1_Default
  6
Continuous
 62
     7
 48
25.4
100
AcDbCircle
 10
137.1804506777
 20
247.4191831535
 30
0.0
 40
0.36
100
AcDbArc
 50
180.0
 51
270.0
  0
ARC
  5
AD
330
52
100
AcDbEntity
  8
DV1_Default
  6
Continuous
 62
     7
 48
25.4
100
AcDbCircle
 10
137.1804506777
 20
236.4991831535
 30
0.0
 40
0.36
100
AcDbArc
 50
90.0
 51
180.0
  0
LINE
  5
AE
330
52
100
AcDbEntity
  8
DV1_Default
  6
Continuous
 62
     7
 48
25.4
100
AcDbLine
 10
121.8204506777
 20
293.3791831535
 30
0.0
 11
121.8204506777
 21
358.4791831535
 31
0.0
  0
LINE
  5
AF
330
52
100
AcDbEntity
  8
DV1_Default
  6
Continuous
 62
     7
 48
25.4
100
AcDbLine
 10
123.6218941978
 20
246.7591831535
 30
0.0
 11
123.6218941978
 21
237.1591831535
 31
0.0
  0
LINE
  5
B0
330
52
100
AcDbEntity
  8
DV1_Default
  6
Continuous
 62
     7
 48
25.4
100
AcDbLine
 10
136.8204506777
 20
247.6591831535
 30
0.0
 11
129.0204506777
 21
247.6591831535
 31
0.0
  0
LINE
  5
B1
330
52
100
AcDbEntity
  8
DV1_Default
  6
Continuous
 62
     7
 48
25.4
100
AcDbLine
 10
129.0204506777
 20
247.6591831535
 30
0.0
 11
129.0204506777
 21
253.3591831535
 31
0.0
  0
LINE
  5
B2
330
52
100
AcDbEntity
  8
DV1_Default
  6
Continuous
 62
     7
 48
25.4
100
AcDbLine
 10
135.6204506777
 20
247.9591831535
 30
0.0
 11
129.0204506777
 21
247.9591831535
 31
0.0
  0
LINE
  5
B3
330
52
100
AcDbEntity
  8
DV1_Default
  6
Continuous
 62
     7
 48
25.4
100
AcDbLine
 10
136.2204506777
 20
248.5591831535
 30
0.0
 11
136.2204506777
 21
253.3591831535
 31
0.0
  0
LINE
  5
B4
330
52
100
AcDbEntity
  8
DV1_Default
  6
Continuous
 62
     7
 48
25.4
100
AcDbLine
 10
135.6204506777
 20
247.9591831535
 30
0.0
 11
136.2204506777
 21
248.5591831535
 31
0.0
  0
LINE
  5
B5
330
52
100
AcDbEntity
  8
DV1_Default
  6
Continuous
 62
     7
 48
25.4
100
AcDbLine
 10
135.697056941
 20
248.0357894168
 30
0.0
 11
135.697056941
 21
253.3591831535
 31
0.0
  0
LINE
  5
B6
330
52
100
AcDbEntity
  8
DV1_Default
  6
Continuous
 62
     7
 48
25.4
100
AcDbLine
 10
129.0204506777
 20
253.3591831535
 30
0.0
 11
129.0204506777
 21
249.7591831535
 31
0.0
  0
LINE
  5
B7
330
52
100
AcDbEntity
  8
DV1_Default
  6
Continuous
 62
     7
 48
25.4
100
AcDbLine
 10
129.0204506777
 20
249.7591831535
 30
0.0
 11
121.8204506777
 21
249.7591831535
 31
0.0
  0
LINE
  5
B8
330
52
100
AcDbEntity
  8
DV1_Default
  6
Continuous
 62
     7
 48
25.4
100
AcDbLine
 10
121.8204506777
 20
249.7591831535
 30
0.0
 11
110.7204506777
 21
249.7591831535
 31
0.0
  0
LINE
  5
B9
330
52
100
AcDbEntity
  8
DV1_Default
  6
Continuous
 62
     7
 48
25.4
100
AcDbLine
 10
110.7204506777
 20
249.7591831535
 30
0.0
 11
110.7204506777
 21
253.3591831535
 31
0.0
  0
LINE
  5
BA
330
52
100
AcDbEntity
  8
DV1_Default
  6
Continuous
 62
     7
 48
25.4
100
AcDbLine
 10
129.0204506777
 20
250.3591831535
 30
0.0
 11
110.7204506777
 21
250.3591831535
 31
0.0
  0
LINE
  5
BB
330
52
100
AcDbEntity
  8
DV1_Default
  6
Continuous
 62
     7
 48
25.4
100
AcDbLine
 10
129.0204506777
 20
249.4591831535
 30
0.0
 11
121.8204506777
 21
249.4591831535
 31
0.0
  0
LINE
  5
BC
330
52
100
AcDbEntity
  8
DV1_Default
  6
Continuous
 62
     7
 48
25.4
100
AcDbLine
 10
136.8204506777
 20
259.0591831535
 30
0.0
 11
129.0204506777
 21
259.0591831535
 31
0.0
  0
LINE
  5
BD
330
52
100
AcDbEntity
  8
DV1_Default
  6
Continuous
 62
     7
 48
25.4
100
AcDbLine
 10
129.0204506777
 20
259.0591831535
 30
0.0
 11
129.0204506777
 21
253.3591831535
 31
0.0
  0
LINE
  5
BE
330
52
100
AcDbEntity
  8
DV1_Default
  6
Continuous
 62
     7
 48
25.4
100
AcDbLine
 10
135.6204506777
 20
258.7591831535
 30
0.0
 11
129.0204506777
 21
258.7591831535
 31
0.0
  0
LINE
  5
BF
330
52
100
AcDbEntity
  8
DV1_Default
  6
Continuous
 62
     7
 48
25.4
100
AcDbLine
 10
136.2204506777
 20
258.1591831535
 30
0.0
 11
136.2204506777
 21
253.3591831535
 31
0.0
  0
LINE
  5
C0
330
52
100
AcDbEntity
  8
DV1_Default
  6
Continuous
 62
     7
 48
25.4
100
AcDbLine
 10
135.6204506777
 20
258.7591831535
 30
0.0
 11
136.2204506777
 21
258.1591831535
 31
0.0
  0
LINE
  5
C1
330
52
100
AcDbEntity
  8
DV1_Default
  6
Continuous
 62
     7
 48
25.4
100
AcDbLine
 10
135.697056941
 20
258.6825768902
 30
0.0
 11
135.697056941
 21
253.3591831535
 31
0.0
  0
LINE
  5
C2
330
52
100
AcDbEntity
  8
DV1_Default
  6
Continuous
 62
     7
 48
25.4
100
AcDbLine
 10
129.0204506777
 20
253.3591831535
 30
0.0
 11
129.0204506777
 21
256.9591831535
 31
0.0
  0
LINE
  5
C3
330
52
100
AcDbEntity
  8
DV1_Default
  6
Continuous
 62
     7
 48
25.4
100
AcDbLine
 10
129.0204506777
 20
256.9591831535
 30
0.0
 11
121.8204506777
 21
256.9591831535
 31
0.0
  0
LINE
  5
C4
330
52
100
AcDbEntity
  8
DV1_Default
  6
Continuous
 62
     7
 48
25.4
100
AcDbLine
 10
121.8204506777
 20
256.9591831535
 30
0.0
 11
110.7204506777
 21
256.9591831535
 31
0.0
  0
LINE
  5
C5
330
52
100
AcDbEntity
  8
DV1_Default
  6
Continuous
 62
     7
 48
25.4
100
AcDbLine
 10
110.7204506777
 20
256.9591831535
 30
0.0
 11
110.7204506777
 21
253.3591831535
 31
0.0
  0
LINE
  5
C6
330
52
100
AcDbEntity
  8
DV1_Default
  6
Continuous
 62
     7
 48
25.4
100
AcDbLine
 10
129.0204506777
 20
256.3591831535
 30
0.0
 11
110.7204506777
 21
256.3591831535
 31
0.0
  0
LINE
  5
C7
330
52
100
AcDbEntity
  8
DV1_Default
  6
Continuous
 62
     7
 48
25.4
100
AcDbLine
 10
129.0204506777
 20
257.2591831535
 30
0.0
 11
121.8204506777
 21
257.2591831535
 31
0.0
  0
LINE
  5
C8
330
52
100
AcDbEntity
  8
DV1_Default
  6
Continuous
 62
     7
 48
25.4
100
AcDbLine
 10
210.0245093779
 20
234.7591831535
 30
0.0
 11
210.9245093779
 21
235.6591831535
 31
0.0
  0
LINE
  5
C9
330
52
100
AcDbEntity
  8
DV1_Default
  6
Continuous
 62
     7
 48
25.4
100
AcDbLine
 10
210.9245093779
 20
248.2591831535
 30
0.0
 11
210.0245093779
 21
249.1591831535
 31
0.0
  0
LINE
  5
CA
330
52
100
AcDbEntity
  8
DV1_Default
  6
Continuous
 62
     7
 48
25.4
100
AcDbLine
 10
210.0245093779
 20
234.7591831535
 30
0.0
 11
210.0245093779
 21
249.1591831535
 31
0.0
  0
LINE
  5
CB
330
52
100
AcDbEntity
  8
DV1_Default
  6
CENTER2
 62
     7
 48
25.4
100
AcDbLine
 10
121.5218941978
 20
241.9591831535
 30
0.0
 11
219.17293107
 21
241.9591831535
 31
0.0
  0
LINE
  5
CC
330
52
100
AcDbEntity
  8
DV1_Default
  6
CENTER2
 62
     7
 48
25.4
100
AcDbLine
 10
108.6204506777
 20
253.3591831535
 30
0.0
 11
142.0633579666
 21
253.3591831535
 31
0.0
  0
LINE
  5
CD
330
52
100
AcDbEntity
  8
DV1_Default
  6
Continuous
 62
     7
 48
25.4
100
AcDbLine
 10
188.7574762756
 20
257.6791831535
 30
0.0
 11
188.7574762756
 21
259.7791831535
 31
0.0
  0
LINE
  5
CE
330
52
100
AcDbEntity
  8
DV1_Default
  6
Continuous
 62
     7
 48
25.4
100
AcDbLine
 10
141.7404506777
 20
269.3791831535
 30
0.0
 11
141.7404506777
 21
293.3791831535
 31
0.0
  0
LINE
  5
CF
330
52
100
AcDbEntity
  8
DV1_Default
  6
Continuous
 62
     7
 48
25.4
100
AcDbLine
 10
142.6404506777
 20
268.4791831535
 30
0.0
 11
188.7574762756
 21
268.4791831535
 31
0.0
  0
LINE
  5
D0
330
52
100
AcDbEntity
  8
DV1_Default
  6
Continuous
 62
     7
 48
25.4
100
AcDbLine
 10
188.7574762756
 20
268.4791831535
 30
0.0
 11
188.7574762756
 21
266.0791831535
 31
0.0
  0
LINE
  5
D1
330
52
100
AcDbEntity
  8
DV1_Default
  6
Continuous
 62
     7
 48
25.4
100
AcDbLine
 10
213.9204506777
 20
273.2791831535
 30
0.0
 11
164.5404506777
 21
273.2791831535
 31
0.0
  0
LINE
  5
D2
330
52
100
AcDbEntity
  8
DV1_Default
  6
Continuous
 62
     7
 48
25.4
100
AcDbLine
 10
141.7404506777
 20
293.3791831535
 30
0.0
 11
141.7404506777
 21
278.3791831535
 31
0.0
  0
LINE
  5
D3
330
52
100
AcDbEntity
  8
DV1_Default
  6
Continuous
 62
     7
 48
25.4
100
AcDbLine
 10
141.7404506777
 20
278.3791831535
 30
0.0
 11
162.1404506777
 21
278.3791831535
 31
0.0
  0
LINE
  5
D4
330
52
100
AcDbEntity
  8
DV1_Default
  6
Continuous
 62
     7
 48
25.4
100
AcDbLine
 10
164.5404506777
 20
293.3791831535
 30
0.0
 11
164.5404506777
 21
270.5791831535
 31
0.0
  0
LINE
  5
D5
330
52
100
AcDbEntity
  8
DV1_Default
  6
Continuous
 62
     7
 48
25.4
100
AcDbLine
 10
164.5404506777
 20
270.5791831535
 30
0.0
 11
162.1404506777
 21
270.5791831535
 31
0.0
  0
LINE
  5
D6
330
52
100
AcDbEntity
  8
DV1_Default
  6
Continuous
 62
     7
 48
25.4
100
AcDbLine
 10
162.1404506777
 20
270.5791831535
 30
0.0
 11
162.1404506777
 21
293.3791831535
 31
0.0
  0
LINE
  5
D7
330
52
100
AcDbEntity
  8
DV1_Default
  6
Continuous
 62
     7
 48
25.4
100
AcDbLine
 10
162.1404506777
 20
293.3791831535
 30
0.0
 11
162.1404506777
 21
270.8791831535
 31
0.0
  0
LINE
  5
D9
330
52
100
AcDbEntity
  8
DV1_Default
  6
HIDDEN2
 62
     7
 48
25.4
100
AcDbLine
 10
162.1404506777
 20
270.8791831535
 30
0.0
 11
141.7404506777
 21
270.8791831535
 31
0.0
  0
LINE
  5
DA
330
52
100
AcDbEntity
  8
DV1_Default
  6
HIDDEN2
 62
     7
 48
25.4
100
AcDbLine
 10
141.7404506777
 20
272.0791831535
 30
0.0
 11
162.1404506777
 21
272.0791831535
 31
0.0
  0
LINE
  5
DB
330
52
100
AcDbEntity
  8
DV1_Default
  6
Continuous
 62
     7
 48
25.4
100
AcDbLine
 10
141.7404506777
 20
269.3791831535
 30
0.0
 11
142.6404506777
 21
268.4791831535
 31
0.0
  0
LINE
  5
DC
330
52
100
AcDbEntity
  8
DV1_Default
  6
Continuous
 62
     7
 48
25.4
100
AcDbLine
 10
214.5204506777
 20
258.3070392116
 30
0.0
 11
210.621694763
 21
258.3070392116
 31
0.0
  0
LINE
  5
DD
330
52
100
AcDbEntity
  8
DV1_Default
  6
Continuous
 62
     7
 48
25.4
100
AcDbLine
 10
214.5204506777
 20
258.0209193664
 30
0.0
 11
210.621694763
 21
258.0209193664
 31
0.0
  0
LINE
  5
DE
330
52
100
AcDbEntity
  8
DV1_Default
  6
Continuous
 62
     7
 48
25.4
100
AcDbLine
 10
214.5204506777
 20
255.6209193664
 30
0.0
 11
210.621694763
 21
255.6209193664
 31
0.0
  0
LINE
  5
DF
330
52
100
AcDbEntity
  8
DV1_Default
  6
CENTER2
 62
     7
 48
25.4
100
AcDbLine
 10
217.2204506777
 20
256.7791831535
 30
0.0
 11
207.1581375871
 21
256.7791831535
 31
0.0
  0
LINE
  5
E0
330
52
100
AcDbEntity
  8
DV1_Default
  6
Continuous
 62
     7
 48
25.4
100
AcDbLine
 10
216.6204506777
 20
256.7791831535
 30
0.0
 11
216.6204506777
 21
253.7791831535
 31
0.0
  0
LINE
  5
E1
330
52
100
AcDbEntity
  8
DV1_Default
  6
Continuous
 62
     7
 48
25.4
100
AcDbLine
 10
216.6204506777
 20
253.7791831535
 30
0.0
 11
214.5204506777
 21
253.7791831535
 31
0.0
  0
LINE
  5
E2
330
52
100
AcDbEntity
  8
DV1_Default
  6
Continuous
 62
     7
 48
25.4
100
AcDbLine
 10
214.5204506777
 20
253.7791831535
 30
0.0
 11
214.5204506777
 21
259.7791831535
 31
0.0
  0
LINE
  5
E3
330
52
100
AcDbEntity
  8
DV1_Default
  6
Continuous
 62
     7
 48
25.4
100
AcDbLine
 10
214.5204506777
 20
259.7791831535
 30
0.0
 11
216.6204506777
 21
259.7791831535
 31
0.0
  0
LINE
  5
E4
330
52
100
AcDbEntity
  8
DV1_Default
  6
Continuous
 62
     7
 48
25.4
100
AcDbLine
 10
208.5204506777
 20
255.3070392116
 30
0.0
 11
208.5204506777
 21
258.3070392116
 31
0.0
  0
LINE
  5
E5
330
52
100
AcDbEntity
  8
DV1_Default
  6
Continuous
 62
     7
 48
25.4
100
AcDbLine
 10
208.5204506777
 20
258.3070392116
 30
0.0
 11
210.621694763
 21
258.3070392116
 31
0.0
  0
LINE
  5
E6
330
52
100
AcDbEntity
  8
DV1_Default
  6
Continuous
 62
     7
 48
25.4
100
AcDbLine
 10
210.621694763
 20
258.0209193664
 30
0.0
 11
208.5204506777
 21
258.0209193664
 31
0.0
  0
LINE
  5
E7
330
52
100
AcDbEntity
  8
DV1_Default
  6
Continuous
 62
     7
 48
25.4
100
AcDbLine
 10
210.621694763
 20
255.6209193664
 30
0.0
 11
208.5204506777
 21
255.6209193664
 31
0.0
  0
LINE
  5
E8
330
52
100
AcDbEntity
  8
DV1_Default
  6
Continuous
 62
     7
 48
25.4
100
AcDbLine
 10
208.5204506777
 20
255.3070392116
 30
0.0
 11
214.5204506777
 21
255.3070392116
 31
0.0
  0
LINE
  5
E9
330
52
100
AcDbEntity
  8
DV1_Default
  6
Continuous
 62
     7
 48
25.4
100
AcDbLine
 10
214.5204506777
 20
259.7791831535
 30
0.0
 11
214.5204506777
 21
259.4791831535
 31
0.0
  0
LINE
  5
EA
330
52
100
AcDbEntity
  8
DV1_Default
  6
Continuous
 62
     7
 48
25.4
100
AcDbLine
 10
214.5204506777
 20
259.4791831535
 30
0.0
 11
215.4204506777
 21
259.4791831535
 31
0.0
  0
LINE
  5
EB
330
52
100
AcDbEntity
  8
DV1_Default
  6
Continuous
 62
     7
 48
25.4
100
AcDbLine
 10
216.3204506777
 20
258.5791831535
 30
0.0
 11
216.3204506777
 21
254.9791831535
 31
0.0
  0
LINE
  5
EC
330
52
100
AcDbEntity
  8
DV1_Default
  6
Continuous
 62
     7
 48
25.4
100
AcDbLine
 10
215.4204506777
 20
254.0791831535
 30
0.0
 11
214.5204506777
 21
254.0791831535
 31
0.0
  0
ARC
  5
ED
330
52
100
AcDbEntity
  8
DV1_Default
  6
Continuous
 62
     7
 48
25.4
100
AcDbCircle
 10
215.4204506777
 20
258.5791831535
 30
0.0
 40
0.9
100
AcDbArc
 50
0.0
 51
90.0
  0
ARC
  5
EE
330
52
100
AcDbEntity
  8
DV1_Default
  6
Continuous
 62
     7
 48
25.4
100
AcDbCircle
 10
215.4204506777
 20
254.9791831535
 30
0.0
 40
0.9
100
AcDbArc
 50
270.0
 51
360.0
  0
LINE
  5
EF
330
52
100
AcDbEntity
  8
DV1_Default
  6
Continuous
 62
     7
 48
25.4
100
AcDbLine
 10
214.5204506777
 20
255.3070392116
 30
0.0
 11
213.9204506777
 21
255.3070392116
 31
0.0
  0
LINE
  5
F0
330
52
100
AcDbEntity
  8
DV1_Default
  6
Continuous
 62
     7
 48
25.4
100
AcDbLine
 10
213.9204506777
 20
255.0070392116
 30
0.0
 11
214.5204506777
 21
255.0070392116
 31
0.0
  0
LINE
  5
F1
330
52
100
AcDbEntity
  8
DV1_Default
  6
Continuous
 62
     7
 48
25.4
100
AcDbLine
 10
213.9204506777
 20
255.0070392116
 30
0.0
 11
213.9204506777
 21
252.5791831535
 31
0.0
  0
LINE
  5
F2
330
52
100
AcDbEntity
  8
DV1_Default
  6
Continuous
 62
     7
 48
25.4
100
AcDbLine
 10
213.9204506777
 20
252.5791831535
 30
0.0
 11
216.6204506777
 21
252.5791831535
 31
0.0
  0
LINE
  5
F3
330
52
100
AcDbEntity
  8
DV1_Default
  6
Continuous
 62
     7
 48
25.4
100
AcDbLine
 10
213.9204506777
 20
258.6070392116
 30
0.0
 11
214.5204506777
 21
258.6070392116
 31
0.0
  0
LINE
  5
F4
330
52
100
AcDbEntity
  8
DV1_Default
  6
Continuous
 62
     7
 48
25.4
100
AcDbLine
 10
188.4574762756
 20
257.3791831535
 30
0.0
 11
188.7574762756
 21
257.6791831535
 31
0.0
  0
LINE
  5
F5
330
52
100
AcDbEntity
  8
DV1_Default
  6
Continuous
 62
     7
 48
25.4
100
AcDbLine
 10
189.3574762756
 20
257.3791831535
 30
0.0
 11
188.4574762756
 21
257.3791831535
 31
0.0
  0
LINE
  5
F6
330
52
100
AcDbEntity
  8
DV1_Default
  6
Continuous
 62
     7
 48
25.4
100
AcDbLine
 10
189.3574762756
 20
257.3791831535
 30
0.0
 11
189.3574762756
 21
259.7791831535
 31
0.0
  0
LINE
  5
F7
330
52
100
AcDbEntity
  8
DV1_Default
  6
Continuous
 62
     7
 48
25.4
100
AcDbLine
 10
203.3399483362
 20
259.7791831535
 30
0.0
 11
203.3399483362
 21
273.2791831535
 31
0.0
  0
LINE
  5
F8
330
52
100
AcDbEntity
  8
DV1_Default
  6
Continuous
 62
     7
 48
25.4
100
AcDbLine
 10
213.9204506777
 20
258.6070392116
 30
0.0
 11
213.9204506777
 21
273.2791831535
 31
0.0
  0
LINE
  5
F9
330
52
100
AcDbEntity
  8
DV1_Default
  6
Continuous
 62
     7
 48
25.4
100
AcDbLine
 10
195.3574762756
 20
273.2791831535
 30
0.0
 11
195.3574762756
 21
263.6791831535
 31
0.0
  0
LINE
  5
FA
330
52
100
AcDbEntity
  8
DV1_Default
  6
Continuous
 62
     7
 48
25.4
100
AcDbLine
 10
195.3574762756
 20
263.6791831535
 30
0.0
 11
197.7574762756
 21
263.6791831535
 31
0.0
  0
LINE
  5
FB
330
52
100
AcDbEntity
  8
DV1_Default
  6
Continuous
 62
     7
 48
25.4
100
AcDbLine
 10
195.3574762756
 20
263.6791831535
 30
0.0
 11
197.7574762756
 21
263.6791831535
 31
0.0
  0
LINE
  5
FC
330
52
100
AcDbEntity
  8
DV1_Default
  6
Continuous
 62
     7
 48
25.4
100
AcDbLine
 10
197.7574762756
 20
263.6791831535
 30
0.0
 11
197.7574762756
 21
264.5791831535
 31
0.0
  0
LINE
  5
FD
330
52
100
AcDbEntity
  8
DV1_Default
  6
Continuous
 62
     7
 48
25.4
100
AcDbLine
 10
197.7574762756
 20
264.5791831535
 30
0.0
 11
203.3399483362
 21
264.5791831535
 31
0.0
  0
LINE
  5
FE
330
52
100
AcDbEntity
  8
DV1_Default
  6
Continuous
 62
     7
 48
25.4
100
AcDbLine
 10
195.7817403443
 20
264.1549190848
 30
0.0
 11
195.3574762756
 21
264.5791831535
 31
0.0
  0
LINE
  5
FF
330
52
100
AcDbEntity
  8
DV1_Default
  6
Continuous
 62
     7
 48
25.4
100
AcDbLine
 10
195.3574762756
 20
264.5791831535
 30
0.0
 11
197.7574762756
 21
264.5791831535
 31
0.0
  0
LINE
  5
100
330
52
100
AcDbEntity
  8
DV1_Default
  6
Continuous
 62
     7
 48
25.4
100
AcDbLine
 10
195.7817403443
 20
264.1549190848
 30
0.0
 11
197.3332122069
 21
264.1549190848
 31
0.0
  0
LINE
  5
101
330
52
100
AcDbEntity
  8
DV1_Default
  6
Continuous
 62
     7
 48
25.4
100
AcDbLine
 10
197.3332122069
 20
264.1549190848
 30
0.0
 11
203.3399483362
 21
264.1549190848
 31
0.0
  0
LINE
  5
102
330
52
100
AcDbEntity
  8
DV1_Default
  6
Continuous
 62
     7
 48
25.4
100
AcDbLine
 10
195.3574762756
 20
272.0791831535
 30
0.0
 11
203.3399483362
 21
272.0791831535
 31
0.0
  0
LINE
  5
103
330
52
100
AcDbEntity
  8
DV1_Default
  6
Continuous
 62
     7
 48
25.4
100
AcDbLine
 10
215.4204506777
 20
274.4791831535
 30
0.0
 11
216.6204506777
 21
273.2791831535
 31
0.0
  0
LINE
  5
104
330
52
100
AcDbEntity
  8
DV1_Default
  6
Continuous
 62
     7
 48
25.4
100
AcDbLine
 10
216.6204506777
 20
273.2791831535
 30
0.0
 11
216.6204506777
 21
293.3791831535
 31
0.0
  0
LINE
  5
105
330
52
100
AcDbEntity
  8
DV1_Default
  6
Continuous
 62
     7
 48
25.4
100
AcDbLine
 10
215.4204506777
 20
274.4791831535
 30
0.0
 11
215.4204506777
 21
293.3791831535
 31
0.0
  0
LINE
  5
106
330
52
100
AcDbEntity
  8
DV1_Default
  6
Continuous
 62
     7
 48
25.4
100
AcDbLine
 10
215.4204506777
 20
274.4791831535
 30
0.0
 11
164.5404506777
 21
274.4791831535
 31
0.0
  0
LINE
  5
107
330
52
100
AcDbEntity
  8
DV1_Default
  6
Continuous
 62
     7
 48
25.4
100
AcDbLine
 10
193.7716628124
 20
259.7791831535
 30
0.0
 11
193.7716628124
 21
259.1791831535
 31
0.0
  0
LINE
  5
108
330
52
100
AcDbEntity
  8
DV1_Default
  6
Continuous
 62
     7
 48
25.4
100
AcDbLine
 10
193.7716628124
 20
259.1791831535
 30
0.0
 11
213.9204506777
 21
259.1791831535
 31
0.0
  0
LINE
  5
109
330
52
100
AcDbEntity
  8
DV1_Default
  6
Continuous
 62
     7
 48
25.4
100
AcDbLine
 10
188.7574762756
 20
259.7791831535
 30
0.0
 11
203.3399483362
 21
259.7791831535
 31
0.0
  0
LINE
  5
10A
330
52
100
AcDbEntity
  8
DV1_Default
  6
Continuous
 62
     7
 48
25.4
100
AcDbLine
 10
188.7574762756
 20
266.0791831535
 30
0.0
 11
195.3574762756
 21
266.0791831535
 31
0.0
  0
LINE
  5
10B
330
52
100
AcDbEntity
  8
DV1_Default
  6
Continuous
 62
     7
 48
25.4
100
AcDbLine
 10
215.4204506777
 20
384.5791831535
 30
0.0
 11
135.0204506777
 21
384.5791831535
 31
0.0
  0
LINE
  5
10C
330
52
100
AcDbEntity
  8
DV1_Default
  6
Continuous
 62
     7
 48
25.4
100
AcDbLine
 10
133.8204506777
 20
359.3791831535
 30
0.0
 11
133.8204506777
 21
383.3791831535
 31
0.0
  0
LINE
  5
10D
330
52
100
AcDbEntity
  8
DV1_Default
  6
Continuous
 62
     7
 48
25.4
100
AcDbLine
 10
133.8204506777
 20
383.3791831535
 30
0.0
 11
135.0204506777
 21
384.5791831535
 31
0.0
  0
LINE
  5
10E
330
52
100
AcDbEntity
  8
DV1_Default
  6
Continuous
 62
     7
 48
25.4
100
AcDbLine
 10
216.6204506777
 20
383.3791831535
 30
0.0
 11
215.4204506777
 21
384.5791831535
 31
0.0
  0
LINE
  5
10F
330
52
100
AcDbEntity
  8
DV1_Default
  6
Continuous
 62
     7
 48
25.4
100
AcDbLine
 10
216.6204506777
 20
313.4791831535
 30
0.0
 11
216.6204506777
 21
383.3791831535
 31
0.0
  0
LINE
  5
110
330
52
100
AcDbEntity
  8
DV1_Default
  6
Continuous
 62
     7
 48
25.4
100
AcDbLine
 10
121.8204506777
 20
358.2658562466
 30
0.0
 11
121.8204506777
 21
337.2991831535
 31
0.0
  0
LINE
  5
111
330
52
100
AcDbEntity
  8
DV1_Default
  6
Continuous
 62
     7
 48
25.4
100
AcDbLine
 10
141.7404506777
 20
317.3791831535
 30
0.0
 11
141.7404506777
 21
293.3791831535
 31
0.0
  0
LINE
  5
112
330
52
100
AcDbEntity
  8
DV1_Default
  6
Continuous
 62
     7
 48
25.4
100
AcDbLine
 10
142.6404506777
 20
318.2791831535
 30
0.0
 11
177.9616578832
 21
318.2791831535
 31
0.0
  0
LINE
  5
113
330
52
100
AcDbEntity
  8
DV1_Default
  6
Continuous
 62
     7
 48
25.4
100
AcDbLine
 10
213.9204506777
 20
313.4791831535
 30
0.0
 11
164.5404506777
 21
313.4791831535
 31
0.0
  0
LINE
  5
114
330
52
100
AcDbEntity
  8
DV1_Default
  6
Continuous
 62
     7
 48
25.4
100
AcDbLine
 10
141.7404506777
 20
293.3791831535
 30
0.0
 11
141.7404506777
 21
308.3791831535
 31
0.0
  0
LINE
  5
115
330
52
100
AcDbEntity
  8
DV1_Default
  6
Continuous
 62
     7
 48
25.4
100
AcDbLine
 10
141.7404506777
 20
308.3791831535
 30
0.0
 11
162.1404506777
 21
308.3791831535
 31
0.0
  0
LINE
  5
116
330
52
100
AcDbEntity
  8
DV1_Default
  6
Continuous
 62
     7
 48
25.4
100
AcDbLine
 10
164.5404506777
 20
293.3791831535
 30
0.0
 11
164.5404506777
 21
316.1791831535
 31
0.0
  0
LINE
  5
117
330
52
100
AcDbEntity
  8
DV1_Default
  6
Continuous
 62
     7
 48
25.4
100
AcDbLine
 10
164.5404506777
 20
316.1791831535
 30
0.0
 11
162.1404506777
 21
316.1791831535
 31
0.0
  0
LINE
  5
118
330
52
100
AcDbEntity
  8
DV1_Default
  6
Continuous
 62
     7
 48
25.4
100
AcDbLine
 10
162.1404506777
 20
316.1791831535
 30
0.0
 11
162.1404506777
 21
293.3791831535
 31
0.0
  0
LINE
  5
119
330
52
100
AcDbEntity
  8
DV1_Default
  6
Continuous
 62
     7
 48
25.4
100
AcDbLine
 10
162.1404506777
 20
293.3791831535
 30
0.0
 11
162.1404506777
 21
315.8791831535
 31
0.0
  0
LINE
  5
11A
330
52
100
AcDbEntity
  8
DV1_Default
  6
HIDDEN2
 62
     7
 48
25.4
100
AcDbLine
 10
162.1404506777
 20
315.8791831535
 30
0.0
 11
141.7404506777
 21
315.8791831535
 31
0.0
  0
LINE
  5
11B
330
52
100
AcDbEntity
  8
DV1_Default
  6
HIDDEN2
 62
     7
 48
25.4
100
AcDbLine
 10
141.7404506777
 20
314.6791831535
 30
0.0
 11
162.1404506777
 21
314.6791831535
 31
0.0
  0
LINE
  5
11C
330
52
100
AcDbEntity
  8
DV1_Default
  6
Continuous
 62
     7
 48
25.4
100
AcDbLine
 10
141.7404506777
 20
317.3791831535
 30
0.0
 11
142.6404506777
 21
318.2791831535
 31
0.0
  0
LINE
  5
11D
330
52
100
AcDbEntity
  8
DV1_Default
  6
Continuous
 62
     7
 48
25.4
100
AcDbLine
 10
215.4204506777
 20
312.2791831535
 30
0.0
 11
216.6204506777
 21
313.4791831535
 31
0.0
  0
LINE
  5
11E
330
52
100
AcDbEntity
  8
DV1_Default
  6
Continuous
 62
     7
 48
25.4
100
AcDbLine
 10
216.6204506777
 20
313.4791831535
 30
0.0
 11
216.6204506777
 21
293.3791831535
 31
0.0
  0
LINE
  5
11F
330
52
100
AcDbEntity
  8
DV1_Default
  6
Continuous
 62
     7
 48
25.4
100
AcDbLine
 10
215.4204506777
 20
312.2791831535
 30
0.0
 11
215.4204506777
 21
293.3791831535
 31
0.0
  0
LINE
  5
120
330
52
100
AcDbEntity
  8
DV1_Default
  6
Continuous
 62
     7
 48
25.4
100
AcDbLine
 10
215.4204506777
 20
312.2791831535
 30
0.0
 11
164.5404506777
 21
312.2791831535
 31
0.0
  0
LINE
  5
121
330
52
100
AcDbEntity
  8
DV1_Default
  6
Continuous
 62
     7
 48
25.4
100
AcDbLine
 10
213.9204506777
 20
313.4791831535
 30
0.0
 11
213.9204506777
 21
338.0791831535
 31
0.0
  0
LINE
  5
122
330
52
100
AcDbEntity
  8
DV1_Default
  6
Continuous
 62
     7
 48
25.4
100
AcDbLine
 10
213.9204506777
 20
338.0791831535
 30
0.0
 11
216.6204506777
 21
338.0791831535
 31
0.0
  0
LINE
  5
123
330
52
100
AcDbEntity
  8
DV1_Default
  6
Continuous
 62
     7
 48
25.4
100
AcDbLine
 10
122.7204506777
 20
227.3791831535
 30
0.0
 11
135.9204506777
 21
227.3791831535
 31
0.0
  0
LINE
  5
124
330
52
100
AcDbEntity
  8
DV1_Default
  6
Continuous
 62
     7
 48
25.4
100
AcDbLine
 10
121.8204506777
 20
249.4591831535
 30
0.0
 11
121.8204506777
 21
228.2791831535
 31
0.0
  0
LINE
  5
125
330
52
100
AcDbEntity
  8
DV1_Default
  6
Continuous
 62
     7
 48
25.4
100
AcDbLine
 10
136.8204506777
 20
236.4991831535
 30
0.0
 11
136.8204506777
 21
228.2791831535
 31
0.0
  0
LINE
  5
126
330
52
100
AcDbEntity
  8
DV1_Default
  6
Continuous
 62
     7
 48
25.4
100
AcDbLine
 10
121.8204506777
 20
228.2791831535
 30
0.0
 11
122.7204506777
 21
227.3791831535
 31
0.0
  0
LINE
  5
127
330
52
100
AcDbEntity
  8
DV1_Default
  6
Continuous
 62
     7
 48
25.4
100
AcDbLine
 10
135.9204506777
 20
227.3791831535
 30
0.0
 11
136.8204506777
 21
228.2791831535
 31
0.0
  0
LINE
  5
128
330
52
100
AcDbEntity
  8
DV1_Default
  6
Continuous
 62
     7
 48
25.4
100
AcDbLine
 10
122.7204506777
 20
359.3791831535
 30
0.0
 11
135.9204506777
 21
359.3791831535
 31
0.0
  0
LINE
  5
129
330
52
100
AcDbEntity
  8
DV1_Default
  6
Continuous
 62
     7
 48
25.4
100
AcDbLine
 10
121.8204506777
 20
358.4791831535
 30
0.0
 11
122.7204506777
 21
359.3791831535
 31
0.0
  0
LINE
  5
12A
330
52
100
AcDbEntity
  8
DV1_Default
  6
Continuous
 62
     7
 48
25.4
100
AcDbLine
 10
135.9204506777
 20
359.3791831535
 30
0.0
 11
136.8204506777
 21
358.4791831535
 31
0.0
  0
SPLINE
  5
12B
330
52
100
AcDbEntity
  8
DV1_Default
  6
Continuous
 62
     7
 48
25.4
100
AcDbSpline
210
0.0
220
0.0
230
1.0
 70
     8
 71
     3
 72
    11
 73
     7
 74
     0
 42
0.0000000001
 43
0.0000000001
 40
0.0
 40
0.0
 40
0.0
 40
0.0
 40
0.1773380147486603
 40
0.5258403581686656
 40
0.8995646219526737
 40
1.0
 40
1.0
 40
1.0
 40
1.0
 10
133.820450677693
 20
367.3951121122431
 30
0.0
 10
138.9730592889185
 20
365.2314407515449
 30
0.0
 10
154.8355685898517
 20
359.434443305163
 30
0.0
 10
139.1076035267099
 20
321.2565022563291
 30
0.0
 10
173.9240073622973
 20
322.0208523378947
 30
0.0
 10
184.2333307118576
 20
315.0833677025371
 30
0.0
 10
186.9831121043533
 20
313.5161828350669
 30
0.0
  0
LINE
  5
12C
330
52
100
AcDbEntity
  8
DV1_Default
  6
Continuous
 62
     7
 48
25.4
100
AcDbLine
 10
149.738159847
 20
329.3791831535
 30
0.0
 11
149.738159847
 21
318.2791831535
 31
0.0
  0
LINE
  5
12D
330
52
100
AcDbEntity
  8
DV1_Default
  6
Continuous
 62
     7
 48
25.4
100
AcDbLine
 10
137.4204506777
 20
329.3791831535
 30
0.0
 11
149.738159847
 21
329.3791831535
 31
0.0
  0
ARC
  5
12E
330
52
100
AcDbEntity
  8
DV1_Default
  6
Continuous
 62
     7
 48
25.4
100
AcDbCircle
 10
137.4204506777
 20
329.9791831535
 30
0.0
 40
0.6
100
AcDbArc
 50
180.0
 51
270.0
  0
LINE
  5
12F
330
52
100
AcDbEntity
  8
DV1_Default
  6
Continuous
 62
     7
 48
25.4
100
AcDbLine
 10
145.8204506777
 20
340.7791831535
 30
0.0
 11
145.8204506777
 21
329.3791831535
 31
0.0
  0
LINE
  5
130
330
52
100
AcDbEntity
  8
DV1_Default
  6
Continuous
 62
     7
 48
25.4
100
AcDbLine
 10
145.8204506777
 20
329.9791831535
 30
0.0
 11
139.5204506777
 21
329.9791831535
 31
0.0
  0
LINE
  5
131
330
52
100
AcDbEntity
  8
DV1_Default
  6
Continuous
 62
     7
 48
25.4
100
AcDbLine
 10
138.6204506777
 20
330.8791831535
 30
0.0
 11
138.6204506777
 21
339.2791831535
 31
0.0
  0
LINE
  5
132
330
52
100
AcDbEntity
  8
DV1_Default
  6
Continuous
 62
     7
 48
25.4
100
AcDbLine
 10
139.5204506777
 20
340.1791831535
 30
0.0
 11
145.8204506777
 21
340.1791831535
 31
0.0
  0
LINE
  5
133
330
52
100
AcDbEntity
  8
DV1_Default
  6
Continuous
 62
     7
 48
25.4
100
AcDbLine
 10
145.8204506777
 20
338.6791831535
 30
0.0
 11
148.2027322948
 21
338.6791831535
 31
0.0
  0
LINE
  5
134
330
52
100
AcDbEntity
  8
DV1_Default
  6
Continuous
 62
     7
 48
25.4
100
AcDbLine
 10
145.8204506777
 20
331.4791831535
 30
0.0
 11
148.8582320336
 21
331.4791831535
 31
0.0
  0
LINE
  5
135
330
52
100
AcDbEntity
  8
DV1_Default
  6
Continuous
 62
     7
 48
25.4
100
AcDbLine
 10
145.8204506777
 20
331.7791831535
 30
0.0
 11
148.7731705248
 21
331.7791831535
 31
0.0
  0
LINE
  5
136
330
52
100
AcDbEntity
  8
DV1_Default
  6
Continuous
 62
     7
 48
25.4
100
AcDbLine
 10
145.8204506777
 20
338.3791831535
 30
0.0
 11
148.1941631489
 21
338.3791831535
 31
0.0
  0
LINE
  5
137
330
52
100
AcDbEntity
  8
DV1_Default
  6
Continuous
 62
     7
 48
25.4
100
AcDbLine
 10
139.5204506777
 20
329.9791831535
 30
0.0
 11
138.6204506777
 21
330.8791831535
 31
0.0
  0
LINE
  5
138
330
52
100
AcDbEntity
  8
DV1_Default
  6
Continuous
 62
     7
 48
25.4
100
AcDbLine
 10
138.6204506777
 20
339.2791831535
 30
0.0
 11
139.5204506777
 21
340.1791831535
 31
0.0
  0
LINE
  5
139
330
52
100
AcDbEntity
  8
DV1_Default
  6
Continuous
 62
     7
 48
25.4
100
AcDbLine
 10
139.5204506777
 20
340.1791831535
 30
0.0
 11
139.5204506777
 21
329.9791831535
 31
0.0
  0
LINE
  5
13A
330
52
100
AcDbEntity
  8
DV1_Default
  6
CENTER2
 62
     7
 48
25.4
100
AcDbLine
 10
151.7453302755
 20
335.0791831535
 30
0.0
 11
134.3955916514
 21
335.0791831535
 31
0.0
  0
LINE
  5
13B
330
52
100
AcDbEntity
  8
DV1_Default
  6
Continuous
 62
     7
 48
25.4
100
AcDbLine
 10
145.8204506777
 20
340.7791831535
 30
0.0
 11
136.8204506777
 21
340.7791831535
 31
0.0
  0
LINE
  5
13C
330
52
100
AcDbEntity
  8
DV1_Default
  6
Continuous
 62
     7
 48
25.4
100
AcDbLine
 10
136.8204506777
 20
342.7962600255
 30
0.0
 11
148.4410797088
 21
342.7962600255
 31
0.0
  0
LINE
  5
13D
330
52
100
AcDbEntity
  8
DV1_Default
  6
CENTER2
 62
     7
 48
25.4
100
AcDbLine
 10
211.4124601887
 20
364.1769303283
 30
0.0
 11
251.2588682945
 21
364.1769303283
 31
0.0
  0
LINE
  5
13E
330
52
100
AcDbEntity
  8
DV1_Default
  6
CENTER2
 62
     7
 48
25.4
100
AcDbLine
 10
213.0575820916
 20
346.2129278631
 30
0.0
 11
250.9846813107
 21
346.2129278631
 31
0.0
  0
ARC
  5
13F
330
52
100
AcDbEntity
  8
DV1_Default
  6
Continuous
 62
     7
 48
25.4
100
AcDbCircle
 10
152.5404506777
 20
257.9791831535
 30
0.0
 40
0.6
100
AcDbArc
 50
180.0
 51
270.0
  0
LINE
  5
140
330
52
100
AcDbEntity
  8
DV1_Default
  6
Continuous
 62
     7
 48
25.4
100
AcDbLine
 10
168.1864589559
 20
257.3791831535
 30
0.0
 11
136.8204506777
 21
257.3791831535
 31
0.0
  0
LINE
  5
141
330
52
100
AcDbEntity
  8
DV1_Default
  6
Continuous
 62
     7
 48
25.4
100
AcDbLine
 10
136.8204506777
 20
247.4191831535
 30
0.0
 11
136.8204506777
 21
293.3791831535
 31
0.0
  0
LINE
  5
142
330
52
100
AcDbEntity
  8
DV1_Default
  6
Continuous
 62
     7
 48
25.4
100
AcDbLine
 10
136.8204506777
 20
293.3791831535
 30
0.0
 11
136.8204506777
 21
358.4791831535
 31
0.0
  0
LINE
  5
143
330
52
100
AcDbEntity
  8
DV1_Default
  6
Continuous
 62
     7
 48
25.4
100
AcDbLine
 10
152.5404506777
 20
265.6291831535
 30
0.0
 11
157.9404506777
 21
265.6291831535
 31
0.0
  0
LINE
  5
144
330
52
100
AcDbEntity
  8
DV1_Default
  6
Continuous
 62
     7
 48
25.4
100
AcDbLine
 10
158.5404506777
 20
265.0291831535
 30
0.0
 11
158.5404506777
 21
261.4291831535
 31
0.0
  0
LINE
  5
145
330
52
100
AcDbEntity
  8
DV1_Default
  6
Continuous
 62
     7
 48
25.4
100
AcDbLine
 10
157.9404506777
 20
260.8291831535
 30
0.0
 11
152.5404506777
 21
260.8291831535
 31
0.0
  0
LINE
  5
146
330
52
100
AcDbEntity
  8
DV1_Default
  6
Continuous
 62
     7
 48
25.4
100
AcDbLine
 10
158.5404506777
 20
265.0291831535
 30
0.0
 11
157.9404506777
 21
265.6291831535
 31
0.0
  0
LINE
  5
147
330
52
100
AcDbEntity
  8
DV1_Default
  6
Continuous
 62
     7
 48
25.4
100
AcDbLine
 10
157.9404506777
 20
260.8291831535
 30
0.0
 11
158.5404506777
 21
261.4291831535
 31
0.0
  0
LINE
  5
148
330
52
100
AcDbEntity
  8
DV1_Default
  6
Continuous
 62
     7
 48
25.4
100
AcDbLine
 10
157.9404506777
 20
265.6291831535
 30
0.0
 11
157.9404506777
 21
260.8291831535
 31
0.0
  0
LINE
  5
149
330
52
100
AcDbEntity
  8
DV1_Default
  6
Continuous
 62
     7
 48
25.4
100
AcDbLine
 10
151.9404506777
 20
266.2291831535
 30
0.0
 11
152.5404506777
 21
265.6291831535
 31
0.0
  0
LINE
  5
14A
330
52
100
AcDbEntity
  8
DV1_Default
  6
Continuous
 62
     7
 48
25.4
100
AcDbLine
 10
151.9404506777
 20
260.2291831535
 30
0.0
 11
152.5404506777
 21
260.8291831535
 31
0.0
  0
LINE
  5
14B
330
52
100
AcDbEntity
  8
DV1_Default
  6
Continuous
 62
     7
 48
25.4
100
AcDbLine
 10
151.9404506777
 20
257.9791831535
 30
0.0
 11
151.9404506777
 21
268.4791831535
 31
0.0
  0
LINE
  5
14C
330
52
100
AcDbEntity
  8
DV1_Default
  6
Continuous
 62
     7
 48
25.4
100
AcDbLine
 10
160.2204506777
 20
253.1791831535
 30
0.0
 11
136.8204506777
 21
253.1791831535
 31
0.0
  0
LINE
  5
14D
330
52
100
AcDbEntity
  8
DV1_Default
  6
Continuous
 62
     7
 48
25.4
100
AcDbLine
 10
160.2204506777
 20
253.1791831535
 30
0.0
 11
160.2204506777
 21
257.3791831535
 31
0.0
  0
LINE
  5
14E
330
52
100
AcDbEntity
  8
DV1_Default
  6
Continuous
 62
     7
 48
25.4
100
AcDbLine
 10
152.5404506777
 20
257.3791831535
 30
0.0
 11
160.2204506777
 21
257.3791831535
 31
0.0
  0
LINE
  5
14F
330
52
100
AcDbEntity
  8
DV1_Default
  6
Continuous
 62
     7
 48
25.4
100
AcDbLine
 10
155.1804506777
 20
254.3791831535
 30
0.0
 11
157.5804506777
 21
254.3791831535
 31
0.0
  0
LINE
  5
150
330
52
100
AcDbEntity
  8
DV1_Default
  6
Continuous
 62
     7
 48
25.4
100
AcDbLine
 10
158.1804506777
 20
254.9791831535
 30
0.0
 11
158.1804506777
 21
262.1791831535
 31
0.0
  0
LINE
  5
151
330
52
100
AcDbEntity
  8
DV1_Default
  6
Continuous
 62
     7
 48
25.4
100
AcDbLine
 10
157.5804506777
 20
262.7791831535
 30
0.0
 11
155.1804506777
 21
262.7791831535
 31
0.0
  0
LINE
  5
152
330
52
100
AcDbEntity
  8
DV1_Default
  6
Continuous
 62
     7
 48
25.4
100
AcDbLine
 10
154.5804506777
 20
262.1791831535
 30
0.0
 11
154.5804506777
 21
254.9791831535
 31
0.0
  0
LINE
  5
153
330
52
100
AcDbEntity
  8
DV1_Default
  6
CENTER2
 62
     7
 48
25.4
100
AcDbLine
 10
149.8404506777
 20
263.2291831535
 30
0.0
 11
160.0404506777
 21
263.2291831535
 31
0.0
  0
LINE
  5
154
330
52
100
AcDbEntity
  8
DV1_Default
  6
Continuous
 62
     7
 48
25.4
100
AcDbLine
 10
154.5804506777
 20
262.1791831535
 30
0.0
 11
155.1804506777
 21
262.7791831535
 31
0.0
  0
LINE
  5
155
330
52
100
AcDbEntity
  8
DV1_Default
  6
Continuous
 62
     7
 48
25.4
100
AcDbLine
 10
158.1804506777
 20
262.1791831535
 30
0.0
 11
157.5804506777
 21
262.7791831535
 31
0.0
  0
LINE
  5
156
330
52
100
AcDbEntity
  8
DV1_Default
  6
Continuous
 62
     7
 48
25.4
100
AcDbLine
 10
154.5804506777
 20
262.1791831535
 30
0.0
 11
158.1804506777
 21
262.1791831535
 31
0.0
  0
LINE
  5
157
330
52
100
AcDbEntity
  8
DV1_Default
  6
Continuous
 62
     7
 48
25.4
100
AcDbLine
 10
154.5804506777
 20
254.9791831535
 30
0.0
 11
155.1804506777
 21
254.3791831535
 31
0.0
  0
LINE
  5
158
330
52
100
AcDbEntity
  8
DV1_Default
  6
Continuous
 62
     7
 48
25.4
100
AcDbLine
 10
157.5804506777
 20
254.3791831535
 30
0.0
 11
158.1804506777
 21
254.9791831535
 31
0.0
  0
LINE
  5
159
330
52
100
AcDbEntity
  8
DV1_Default
  6
Continuous
 62
     7
 48
25.4
100
AcDbLine
 10
154.5804506777
 20
254.9791831535
 30
0.0
 11
158.1804506777
 21
254.9791831535
 31
0.0
  0
LINE
  5
15A
330
52
100
AcDbEntity
  8
DV1_Default
  6
CENTER2
 62
     7
 48
25.4
100
AcDbLine
 10
156.3804506777
 20
252.2791831535
 30
0.0
 11
156.3804506777
 21
264.2791831535
 31
0.0
  0
LINE
  5
15B
330
52
100
AcDbEntity
  8
DV1_Default
  6
Continuous
 62
     7
 48
25.4
100
AcDbLine
 10
157.5804506777
 20
263.2184718614
 30
0.0
 11
157.5804506777
 21
262.0184718614
 31
0.0
  0
LINE
  5
15C
330
52
100
AcDbEntity
  8
DV1_Default
  6
Continuous
 62
     7
 48
25.4
100
AcDbLine
 10
158.1804506777
 20
261.4184718614
 30
0.0
 11
165.9804506777
 21
261.4184718614
 31
0.0
  0
LINE
  5
15D
330
52
100
AcDbEntity
  8
DV1_Default
  6
Continuous
 62
     7
 48
25.4
100
AcDbLine
 10
166.5804506777
 20
262.0184724894
 30
0.0
 11
166.5804506777
 21
264.4184724894
 31
0.0
  0
LINE
  5
15E
330
52
100
AcDbEntity
  8
DV1_Default
  6
Continuous
 62
     7
 48
25.4
100
AcDbLine
 10
165.9804506777
 20
265.0184718614
 30
0.0
 11
158.1804506777
 21
265.0184718614
 31
0.0
  0
LINE
  5
15F
330
52
100
AcDbEntity
  8
DV1_Default
  6
Continuous
 62
     7
 48
25.4
100
AcDbLine
 10
157.5804506777
 20
264.4184718614
 30
0.0
 11
157.5804506777
 21
263.2184718614
 31
0.0
  0
LINE
  5
160
330
52
100
AcDbEntity
  8
DV1_Default
  6
Continuous
 62
     7
 48
25.4
100
AcDbLine
 10
158.1804506777
 20
261.4184718614
 30
0.0
 11
157.5804506777
 21
262.0184718614
 31
0.0
  0
LINE
  5
161
330
52
100
AcDbEntity
  8
DV1_Default
  6
Continuous
 62
     7
 48
25.4
100
AcDbLine
 10
158.1804506777
 20
265.0184718614
 30
0.0
 11
157.5804506777
 21
264.4184718614
 31
0.0
  0
LINE
  5
162
330
52
100
AcDbEntity
  8
DV1_Default
  6
Continuous
 62
     7
 48
25.4
100
AcDbLine
 10
165.9804506777
 20
265.0184718614
 30
0.0
 11
166.5804506777
 21
264.4184718614
 31
0.0
  0
LINE
  5
163
330
52
100
AcDbEntity
  8
DV1_Default
  6
Continuous
 62
     7
 48
25.4
100
AcDbLine
 10
165.9804506777
 20
261.4184718614
 30
0.0
 11
166.5804506777
 21
262.0184718614
 31
0.0
  0
LINE
  5
164
330
52
100
AcDbEntity
  8
DV1_Default
  6
Continuous
 62
     7
 48
25.4
100
AcDbLine
 10
165.9804506777
 20
265.0184718614
 30
0.0
 11
165.9804506777
 21
261.4184718614
 31
0.0
  0
LINE
  5
165
330
52
100
AcDbEntity
  8
DV1_Default
  6
Continuous
 62
     7
 48
25.4
100
AcDbLine
 10
165.9804506777
 20
263.2184718614
 30
0.0
 11
166.5804506777
 21
263.8184718614
 31
0.0
  0
LINE
  5
166
330
52
100
AcDbEntity
  8
DV1_Default
  6
Continuous
 62
     7
 48
25.4
100
AcDbLine
 10
165.9804506777
 20
263.2184718614
 30
0.0
 11
166.5804506777
 21
262.6184718614
 31
0.0
  0
LINE
  5
167
330
52
100
AcDbEntity
  8
DV1_Default
  6
Continuous
 62
     7
 48
25.4
100
AcDbLine
 10
167.3834548168
 20
262.0267723193
 30
0.0
 11
167.3834548168
 21
264.4267723193
 31
0.0
  0
ELLIPSE
  5
168
330
52
100
AcDbEntity
  8
DV1_Default
  6
Continuous
 62
     7
 48
25.4
100
AcDbEllipse
 10
167.3834548168
 20
263.2267723193
 30
0.0
 11
0.8029411537374146
 21
-0.006729810953605422
 31
0.0
210
0.0
220
0.0
230
1.0
 40
1.0
 41
0.0
 42
6.283185307179586
  0
LINE
  5
169
330
52
100
AcDbEntity
  8
DV1_Default
  6
Continuous
 62
     7
 48
25.4
100
AcDbLine
 10
167.3890089226
 20
264.4267490438
 30
0.0
 11
157.5804506777
 21
264.4184718614
 31
0.0
  0
LINE
  5
16A
330
52
100
AcDbEntity
  8
DV1_Default
  6
Continuous
 62
     7
 48
25.4
100
AcDbLine
 10
157.5804506777
 20
262.0184718614
 30
0.0
 11
167.377900711
 21
262.0267955948
 31
0.0
  0
LINE
  5
16B
330
52
100
AcDbEntity
  8
DV1_Default
  6
Continuous
 62
     7
 48
25.4
100
AcDbLine
 10
165.9804506777
 20
265.0184718614
 30
0.0
 11
168.1864589559
 21
265.0184718614
 31
0.0
  0
LINE
  5
16C
330
52
100
AcDbEntity
  8
DV1_Default
  6
Continuous
 62
     7
 48
25.4
100
AcDbLine
 10
165.9804506777
 20
261.4184718614
 30
0.0
 11
168.1864589559
 21
261.4184718614
 31
0.0
  0
LINE
  5
16D
330
52
100
AcDbEntity
  8
DV1_Default
  6
Continuous
 62
     7
 48
25.4
100
AcDbLine
 10
167.377900711
 20
262.0267955948
 30
0.0
 11
168.1507551692
 21
262.0267955948
 31
0.0
  0
LINE
  5
16E
330
52
100
AcDbEntity
  8
DV1_Default
  6
Continuous
 62
     7
 48
25.4
100
AcDbLine
 10
167.3834548168
 20
264.4267723193
 30
0.0
 11
168.1864589559
 21
264.4184718614
 31
0.0
  0
LINE
  5
16F
330
52
100
AcDbEntity
  8
DV1_Default
  6
Continuous
 62
     7
 48
25.4
100
AcDbLine
 10
168.1864589559
 20
260.8669230559
 30
0.0
 11
168.1864589559
 21
267.5791831535
 31
0.0
  0
LINE
  5
170
330
52
100
AcDbEntity
  8
DV1_Default
  6
Continuous
 62
     7
 48
25.4
100
AcDbLine
 10
168.7864589559
 20
268.1791831535
 30
0.0
 11
171.1864589559
 21
268.1791831535
 31
0.0
  0
LINE
  5
171
330
52
100
AcDbEntity
  8
DV1_Default
  6
Continuous
 62
     7
 48
25.4
100
AcDbLine
 10
171.7864589559
 20
267.5791831535
 30
0.0
 11
171.7864589559
 21
260.8669230559
 31
0.0
  0
LINE
  5
172
330
52
100
AcDbEntity
  8
DV1_Default
  6
Continuous
 62
     7
 48
25.4
100
AcDbLine
 10
168.1864589559
 20
267.5791831535
 30
0.0
 11
168.7864589559
 21
268.1791831535
 31
0.0
  0
LINE
  5
173
330
52
100
AcDbEntity
  8
DV1_Default
  6
Continuous
 62
     7
 48
25.4
100
AcDbLine
 10
171.7864589559
 20
267.5791831535
 30
0.0
 11
171.1864589559
 21
268.1791831535
 31
0.0
  0
LINE
  5
174
330
52
100
AcDbEntity
  8
DV1_Default
  6
Continuous
 62
     7
 48
25.4
100
AcDbLine
 10
168.7864589559
 20
268.1791831535
 30
0.0
 11
168.7864589559
 21
257.9791831535
 31
0.0
  0
LINE
  5
175
330
52
100
AcDbEntity
  8
DV1_Default
  6
Continuous
 62
     7
 48
25.4
100
AcDbLine
 10
171.1864589559
 20
268.1791831535
 30
0.0
 11
171.1864589559
 21
257.9791831535
 31
0.0
  0
LINE
  5
176
330
52
100
AcDbEntity
  8
DV1_Default
  6
Continuous
 62
     7
 48
25.4
100
AcDbLine
 10
168.7864589559
 20
257.9791831535
 30
0.0
 11
168.1864589559
 21
257.3791831535
 31
0.0
  0
LINE
  5
177
330
52
100
AcDbEntity
  8
DV1_Default
  6
Continuous
 62
     7
 48
25.4
100
AcDbLine
 10
171.7864589559
 20
257.3791831535
 30
0.0
 11
188.4574762756
 21
257.3791831535
 31
0.0
  0
LINE
  5
178
330
52
100
AcDbEntity
  8
DV1_Default
  6
Continuous
 62
     7
 48
25.4
100
AcDbLine
 10
171.1864589559
 20
257.9791831535
 30
0.0
 11
171.7864589559
 21
257.3791831535
 31
0.0
  0
LINE
  5
179
330
52
100
AcDbEntity
  8
DV1_Default
  6
Continuous
 62
     7
 48
25.4
100
AcDbLine
 10
168.1864589559
 20
257.3791831535
 30
0.0
 11
171.7864589559
 21
257.3791831535
 31
0.0
  0
LINE
  5
17A
330
52
100
AcDbEntity
  8
DV1_Default
  6
Continuous
 62
     7
 48
25.4
100
AcDbLine
 10
168.7864589559
 20
257.9791831535
 30
0.0
 11
171.1864589559
 21
257.9791831535
 31
0.0
  0
LINE
  5
17B
330
52
100
AcDbEntity
  8
DV1_Default
  6
Continuous
 62
     7
 48
25.4
100
AcDbLine
 10
168.1507551692
 20
262.0267955948
 30
0.0
 11
168.1864589559
 21
262.0267955948
 31
0.0
  0
LINE
  5
17C
330
52
100
AcDbEntity
  8
DV1_Default
  6
Continuous
 62
     7
 48
25.4
100
AcDbLine
 10
168.7864589559
 20
260.2669230559
 30
0.0
 11
171.1864589559
 21
260.2669230559
 31
0.0
  0
LINE
  5
17D
330
52
100
AcDbEntity
  8
DV1_Default
  6
Continuous
 62
     7
 48
25.4
100
AcDbLine
 10
168.1864589559
 20
260.8669230559
 30
0.0
 11
168.7864589559
 21
260.2669230559
 31
0.0
  0
LINE
  5
17E
330
52
100
AcDbEntity
  8
DV1_Default
  6
Continuous
 62
     7
 48
25.4
100
AcDbLine
 10
171.7864589559
 20
260.8669230559
 30
0.0
 11
171.1864589559
 21
260.2669230559
 31
0.0
  0
LINE
  5
17F
330
52
100
AcDbEntity
  8
DV1_Default
  6
Continuous
 62
     7
 48
25.4
100
AcDbLine
 10
168.1864589559
 20
260.8669230559
 30
0.0
 11
168.1864589559
 21
257.3791831535
 31
0.0
  0
LINE
  5
180
330
52
100
AcDbEntity
  8
DV1_Default
  6
Continuous
 62
     7
 48
25.4
100
AcDbLine
 10
171.7864589559
 20
260.8669230559
 30
0.0
 11
171.7864589559
 21
257.3791831535
 31
0.0
  0
LINE
  5
181
330
52
100
AcDbEntity
  8
DV1_Default
  6
Continuous
 62
     7
 48
25.4
100
AcDbLine
 10
168.1864589559
 20
260.8669230559
 30
0.0
 11
171.7864589559
 21
260.8669230559
 31
0.0
  0
LINE
  5
182
330
52
100
AcDbEntity
  8
DV1_Default
  6
Continuous
 62
     7
 48
25.4
100
AcDbLine
 10
168.7864589559
 20
268.1791831535
 30
0.0
 11
169.9864589559
 21
269.3791831535
 31
0.0
  0
LINE
  5
183
330
52
100
AcDbEntity
  8
DV1_Default
  6
Continuous
 62
     7
 48
25.4
100
AcDbLine
 10
171.1864589559
 20
268.1791831535
 30
0.0
 11
169.9864589559
 21
269.3791831535
 31
0.0
  0
ARC
  5
184
330
52
100
AcDbEntity
  8
DV1_Default
  6
Continuous
 62
     7
 48
25.4
100
AcDbCircle
 10
169.984163851
 20
267.6684744698
 30
0.0
 40
1.211520436288729
100
AcDbArc
 50
24.9320317387
 51
155.066855311
  0
LINE
  5
185
330
52
100
AcDbEntity
  8
DV1_Default
  6
Continuous
 62
     7
 48
25.4
100
AcDbLine
 10
237.0204506758
 20
353.4129278631
 30
0.0
 11
228.0204506758
 21
353.4129278631
 31
0.0
  0
LINE
  5
186
330
52
100
AcDbEntity
  8
DV1_Default
  6
Continuous
 62
     7
 48
25.4
100
AcDbLine
 10
237.0204506758
 20
339.0129278631
 30
0.0
 11
228.0204506758
 21
339.0129278631
 31
0.0
  0
LINE
  5
187
330
52
100
AcDbEntity
  8
DV1_Default
  6
Continuous
 62
     7
 48
25.4
100
AcDbLine
 10
237.0204506758
 20
371.3791831535
 30
0.0
 11
228.0204506758
 21
371.3791831535
 31
0.0
  0
LINE
  5
188
330
52
100
AcDbEntity
  8
DV1_Default
  6
Continuous
 62
     7
 48
25.4
100
AcDbLine
 10
237.0204506758
 20
356.9791831535
 30
0.0
 11
228.0204506758
 21
356.9791831535
 31
0.0
  0
LINE
  5
189
330
52
100
AcDbEntity
  8
DV1_Default
  6
Continuous
 62
     7
 48
25.4
100
AcDbLine
 10
133.8204506777
 20
293.3791831535
 30
0.0
 11
133.8204506777
 21
262.9400978843
 31
0.0
  0
LINE
  5
18A
330
52
100
AcDbEntity
  8
DV1_Default
  6
Continuous
 62
     7
 48
25.4
100
AcDbLine
 10
121.8204506777
 20
261.4666831535
 30
0.0
 11
133.8204506777
 21
262.9400978843
 31
0.0
  0
LINE
  5
18B
330
52
100
AcDbEntity
  8
DV1_Default
  6
Continuous
 62
     7
 48
25.4
100
AcDbLine
 10
133.8204506777
 20
262.9400978843
 30
0.0
 11
136.8204506777
 21
262.9400978843
 31
0.0
  0
LINE
  5
18C
330
52
100
AcDbEntity
  8
DV1_Default
  6
Continuous
 62
     7
 48
25.4
100
AcDbLine
 10
133.8204506777
 20
293.3791831535
 30
0.0
 11
133.8204506777
 21
323.8182684227
 31
0.0
  0
LINE
  5
18D
330
52
100
AcDbEntity
  8
DV1_Default
  6
Continuous
 62
     7
 48
25.4
100
AcDbLine
 10
121.8204506777
 20
325.2916831535
 30
0.0
 11
133.8204506777
 21
323.8182684227
 31
0.0
  0
LINE
  5
18E
330
52
100
AcDbEntity
  8
DV1_Default
  6
Continuous
 62
     7
 48
25.4
100
AcDbLine
 10
133.8204506777
 20
323.8182684227
 30
0.0
 11
136.8204506777
 21
323.8182684227
 31
0.0
  0
LINE
  5
18F
330
52
100
AcDbEntity
  8
DV1_Default
  6
Continuous
 62
     7
 48
25.4
100
AcDbLine
 10
121.8204506777
 20
293.3791831535
 30
0.0
 11
121.8204506777
 21
257.2591831535
 31
0.0
  0
ENDBLK
  5
191
330
52
100
AcDbEntity
  8
0
100
AcDbBlockEnd
  0
BLOCK
  5
24E
330
192
100
AcDbEntity
  8
0
100
AcDbBlockBegin
  2
SE1
 70
     0
 71
     0
 10
0.0
 20
0.0
 30
0.0
  3
SE1
  1

  0
LINE
  5
195
330
192
100
AcDbEntity
  8
DV2_Default
  6
CENTER2
 62
     7
 48
25.4
100
AcDbLine
 10
334.2476982834
 20
287.9460742016
 30
0.0
 11
538.4407607007
 21
287.9460742016
 31
0.0
  0
LINE
  5
196
330
192
100
AcDbEntity
  8
DV2_Default
  6
CENTER2
 62
     7
 48
25.4
100
AcDbLine
 10
433.7513267327
 20
387.5551295095
 30
0.0
 11
433.7513267327
 21
186.7167487358
 31
0.0
  0
CIRCLE
  5
197
330
192
100
AcDbEntity
  8
DV2_Default
  6
Continuous
 62
     7
 48
25.4
100
AcDbCircle
 10
433.7513267327
 20
287.9460742016
 30
0.0
 40
15.0
  0
LINE
  5
198
330
192
100
AcDbEntity
  8
DV2_Default
  6
Continuous
 62
     7
 48
25.4
100
AcDbLine
 10
417.5513267327
 20
377.6957260115
 30
0.0
 11
417.5513267327
 21
319.1460742016
 31
0.0
  0
LINE
  5
199
330
192
100
AcDbEntity
  8
DV2_Default
  6
Continuous
 62
     7
 48
25.4
100
AcDbLine
 10
449.9513267327
 20
319.1460742016
 30
0.0
 11
449.9513267327
 21
377.6957260115
 31
0.0
  0
LINE
  5
19A
330
192
100
AcDbEntity
  8
DV2_Default
  6
Continuous
 62
     7
 48
25.4
100
AcDbLine
 10
418.7513267327
 20
371.3460742016
 30
0.0
 11
418.7513267327
 21
304.7460742016
 31
0.0
  0
LINE
  5
19B
330
192
100
AcDbEntity
  8
DV2_Default
  6
Continuous
 62
     7
 48
25.4
100
AcDbLine
 10
448.7513267327
 20
371.3460742016
 30
0.0
 11
448.7513267327
 21
304.7460742016
 31
0.0
  0
LINE
  5
19C
330
192
100
AcDbEntity
  8
DV2_Default
  6
Continuous
 62
     7
 48
25.4
100
AcDbLine
 10
448.7513267327
 20
304.7460742016
 30
0.0
 11
418.7513267327
 21
304.7460742016
 31
0.0
  0
LINE
  5
19D
330
192
100
AcDbEntity
  8
DV2_Default
  6
Continuous
 62
     7
 48
25.4
100
AcDbLine
 10
418.7513267327
 20
371.3460742016
 30
0.0
 11
448.7513267327
 21
371.3460742016
 31
0.0
  0
CIRCLE
  5
19E
330
192
100
AcDbEntity
  8
DV2_Default
  6
Continuous
 62
     7
 48
25.4
100
AcDbCircle
 10
433.7515865985
 20
358.7460742016
 30
0.0
 40
7.499999999999999
  0
LINE
  5
19F
330
192
100
AcDbEntity
  8
DV2_Default
  6
Continuous
 62
     7
 48
25.4
100
AcDbLine
 10
433.7515865985
 20
363.5460742016
 30
0.0
 11
429.5946646603
 21
361.1460742016
 31
0.0
  0
LINE
  5
1A0
330
192
100
AcDbEntity
  8
DV2_Default
  6
Continuous
 62
     7
 48
25.4
100
AcDbLine
 10
429.5946646603
 20
361.1460742016
 30
0.0
 11
429.5946646603
 21
356.3460742016
 31
0.0
  0
LINE
  5
1A1
330
192
100
AcDbEntity
  8
DV2_Default
  6
Continuous
 62
     7
 48
25.4
100
AcDbLine
 10
429.5946646603
 20
356.3460742016
 30
0.0
 11
433.7515865985
 21
353.9460742016
 31
0.0
  0
LINE
  5
1A2
330
192
100
AcDbEntity
  8
DV2_Default
  6
Continuous
 62
     7
 48
25.4
100
AcDbLine
 10
433.7515865985
 20
353.9460742016
 30
0.0
 11
437.9085085367
 21
356.3460742016
 31
0.0
  0
LINE
  5
1A3
330
192
100
AcDbEntity
  8
DV2_Default
  6
Continuous
 62
     7
 48
25.4
100
AcDbLine
 10
437.9085085367
 20
356.3460742016
 30
0.0
 11
437.9085085367
 21
361.1460742016
 31
0.0
  0
LINE
  5
1A4
330
192
100
AcDbEntity
  8
DV2_Default
  6
Continuous
 62
     7
 48
25.4
100
AcDbLine
 10
437.9085085367
 20
361.1460742016
 30
0.0
 11
433.7515865985
 21
363.5460742016
 31
0.0
  0
CIRCLE
  5
1A5
330
192
100
AcDbEntity
  8
DV2_Default
  6
Continuous
 62
     7
 48
25.4
100
AcDbCircle
 10
433.7515865985
 20
340.7460742016
 30
0.0
 40
7.499999999999999
  0
LINE
  5
1A6
330
192
100
AcDbEntity
  8
DV2_Default
  6
Continuous
 62
     7
 48
25.4
100
AcDbLine
 10
433.7515865985
 20
335.9460742016
 30
0.0
 11
429.5946646603
 21
338.3460742016
 31
0.0
  0
LINE
  5
1A7
330
192
100
AcDbEntity
  8
DV2_Default
  6
Continuous
 62
     7
 48
25.4
100
AcDbLine
 10
429.5946646603
 20
338.3460742016
 30
0.0
 11
429.5946646603
 21
343.1460742016
 31
0.0
  0
LINE
  5
1A8
330
192
100
AcDbEntity
  8
DV2_Default
  6
Continuous
 62
     7
 48
25.4
100
AcDbLine
 10
429.5946646603
 20
343.1460742016
 30
0.0
 11
433.7515865985
 21
345.5460742016
 31
0.0
  0
LINE
  5
1A9
330
192
100
AcDbEntity
  8
DV2_Default
  6
Continuous
 62
     7
 48
25.4
100
AcDbLine
 10
433.7515865985
 20
345.5460742016
 30
0.0
 11
437.9085085367
 21
343.1460742016
 31
0.0
  0
LINE
  5
1AA
330
192
100
AcDbEntity
  8
DV2_Default
  6
Continuous
 62
     7
 48
25.4
100
AcDbLine
 10
437.9085085367
 20
343.1460742016
 30
0.0
 11
437.9085085367
 21
338.3460742016
 31
0.0
  0
LINE
  5
1AB
330
192
100
AcDbEntity
  8
DV2_Default
  6
Continuous
 62
     7
 48
25.4
100
AcDbLine
 10
437.9085085367
 20
338.3460742016
 30
0.0
 11
433.7515865985
 21
335.9460742016
 31
0.0
  0
LINE
  5
1AC
330
192
100
AcDbEntity
  8
DV2_Default
  6
Continuous
 62
     7
 48
25.4
100
AcDbLine
 10
433.1524733688
 20
252.0853046861
 30
0.0
 11
432.5524733688
 21
251.0460742016
 31
0.0
  0
LINE
  5
1AD
330
192
100
AcDbEntity
  8
DV2_Default
  6
Continuous
 62
     7
 48
25.4
100
AcDbLine
 10
432.5524733688
 20
251.0460742016
 30
0.0
 11
433.1524733688
 21
250.006843717
 31
0.0
  0
LINE
  5
1AE
330
192
100
AcDbEntity
  8
DV2_Default
  6
Continuous
 62
     7
 48
25.4
100
AcDbLine
 10
433.1524733688
 20
250.006843717
 30
0.0
 11
434.3524733688
 21
250.006843717
 31
0.0
  0
LINE
  5
1AF
330
192
100
AcDbEntity
  8
DV2_Default
  6
Continuous
 62
     7
 48
25.4
100
AcDbLine
 10
434.3524733688
 20
250.006843717
 30
0.0
 11
434.9524733688
 21
251.0460742016
 31
0.0
  0
LINE
  5
1B0
330
192
100
AcDbEntity
  8
DV2_Default
  6
Continuous
 62
     7
 48
25.4
100
AcDbLine
 10
434.9524733688
 20
251.0460742016
 30
0.0
 11
434.3524733688
 21
252.0853046861
 31
0.0
  0
LINE
  5
1B1
330
192
100
AcDbEntity
  8
DV2_Default
  6
Continuous
 62
     7
 48
25.4
100
AcDbLine
 10
433.1524733688
 20
252.0853046861
 30
0.0
 11
434.3524733688
 21
252.0853046861
 31
0.0
  0
CIRCLE
  5
1B2
330
192
100
AcDbEntity
  8
DV2_Default
  6
Continuous
 62
     7
 48
25.4
100
AcDbCircle
 10
433.7513267327
 20
251.0460742016
 30
0.0
 40
3.0
  0
LINE
  5
1B3
330
192
100
AcDbEntity
  8
DV2_Default
  6
Continuous
 62
     7
 48
25.4
100
AcDbLine
 10
417.5513267327
 20
319.1460742016
 30
0.0
 11
418.7513267327
 21
319.1460742016
 31
0.0
  0
LINE
  5
1B4
330
192
100
AcDbEntity
  8
DV2_Default
  6
Continuous
 62
     7
 48
25.4
100
AcDbLine
 10
449.9513267327
 20
319.1460742016
 30
0.0
 11
448.7513267327
 21
319.1460742016
 31
0.0
  0
CIRCLE
  5
1B5
330
192
100
AcDbEntity
  8
DV2_Default
  6
Continuous
 62
     7
 48
25.4
100
AcDbCircle
 10
433.7513267327
 20
236.5260742016
 30
0.0
 40
7.5
  0
CIRCLE
  5
1B6
330
192
100
AcDbEntity
  8
DV2_Default
  6
Continuous
 62
     7
 48
25.4
100
AcDbCircle
 10
433.7513267327
 20
236.5260742016
 30
0.0
 40
5.100000000000001
  0
LINE
  5
1B7
330
192
100
AcDbEntity
  8
DV2_Default
  6
CENTER2
 62
     7
 48
25.4
100
AcDbLine
 10
433.7513267327
 20
244.0260742016
 30
0.0
 11
433.7513267327
 21
229.0260742016
 31
0.0
  0
LINE
  5
1B8
330
192
100
AcDbEntity
  8
DV2_Default
  6
Continuous
 62
     7
 48
25.4
100
AcDbLine
 10
433.7513267327
 20
382.1460742016
 30
0.0
 11
417.5513267327
 21
382.1460742016
 31
0.0
  0
LINE
  5
1B9
330
192
100
AcDbEntity
  8
DV2_Default
  6
Continuous
 62
     7
 48
25.4
100
AcDbLine
 10
417.5513267327
 20
382.1460742016
 30
0.0
 11
417.5513267327
 21
377.6957260115
 31
0.0
  0
LINE
  5
1BA
330
192
100
AcDbEntity
  8
DV2_Default
  6
Continuous
 62
     7
 48
25.4
100
AcDbLine
 10
418.7513267327
 20
371.3460742016
 30
0.0
 11
418.7513267327
 21
382.1460742016
 31
0.0
  0
LINE
  5
1BB
330
192
100
AcDbEntity
  8
DV2_Default
  6
Continuous
 62
     7
 48
25.4
100
AcDbLine
 10
417.5513267327
 20
382.1460742016
 30
0.0
 11
408.8579942961
 21
379.8167027956
 31
0.0
  0
LINE
  5
1BC
330
192
100
AcDbEntity
  8
DV2_Default
  6
Continuous
 62
     7
 48
25.4
100
AcDbLine
 10
408.8579942961
 20
379.8167027956
 30
0.0
 11
408.8579942961
 21
375.6829649614
 31
0.0
  0
LINE
  5
1BD
330
192
100
AcDbEntity
  8
DV2_Default
  6
Continuous
 62
     7
 48
25.4
100
AcDbLine
 10
433.7513267327
 20
382.1460742016
 30
0.0
 11
449.9513267327
 21
382.1460742016
 31
0.0
  0
LINE
  5
1BE
330
192
100
AcDbEntity
  8
DV2_Default
  6
Continuous
 62
     7
 48
25.4
100
AcDbLine
 10
449.9513267327
 20
382.1460742016
 30
0.0
 11
449.9513267327
 21
377.6957260115
 31
0.0
  0
LINE
  5
1BF
330
192
100
AcDbEntity
  8
DV2_Default
  6
Continuous
 62
     7
 48
25.4
100
AcDbLine
 10
449.9513267327
 20
382.1460742016
 30
0.0
 11
458.6446591693
 21
379.8167027956
 31
0.0
  0
LINE
  5
1C0
330
192
100
AcDbEntity
  8
DV2_Default
  6
Continuous
 62
     7
 48
25.4
100
AcDbLine
 10
458.6446591693
 20
379.8167027956
 30
0.0
 11
458.6446591693
 21
375.6829649614
 31
0.0
  0
LINE
  5
1C1
330
192
100
AcDbEntity
  8
DV2_Default
  6
Continuous
 62
     7
 48
25.4
100
AcDbLine
 10
448.7513267327
 20
371.3460742016
 30
0.0
 11
448.7513267327
 21
382.1214131285
 31
0.0
  0
LINE
  5
1C2
330
192
100
AcDbEntity
  8
DV2_Default
  6
Continuous
 62
     7
 48
25.4
100
AcDbLine
 10
427.4513267327
 20
371.3460742016
 30
0.0
 11
427.4513267327
 21
382.1460742016
 31
0.0
  0
LINE
  5
1C3
330
192
100
AcDbEntity
  8
DV2_Default
  6
Continuous
 62
     7
 48
25.4
100
AcDbLine
 10
440.0513267327
 20
371.3460742016
 30
0.0
 11
440.0513267327
 21
382.1460742016
 31
0.0
  0
ARC
  5
1C4
330
192
100
AcDbEntity
  8
DV2_Default
  6
Continuous
 62
     7
 48
25.4
100
AcDbCircle
 10
433.7513267327
 20
287.9460742016
 30
0.0
 40
91.19999999999999
100
AcDbArc
 50
220.2318362662
 51
319.7681637338
  0
ARC
  5
1C5
330
192
100
AcDbEntity
  8
DV2_Default
  6
Continuous
 62
     7
 48
25.4
100
AcDbCircle
 10
433.7513267327
 20
287.9460742016
 30
0.0
 40
18.6
100
AcDbArc
 50
355.4146209152
 51
64.5853790848
  0
CIRCLE
  5
1C6
330
192
100
AcDbEntity
  8
DV2_Default
  6
HIDDEN2
 62
     7
 48
25.4
100
AcDbCircle
 10
444.1092649177
 20
249.2897226335
 30
0.0
 40
3.6
  0
CIRCLE
  5
1C7
330
192
100
AcDbEntity
  8
DV2_Default
  6
HIDDEN2
 62
     7
 48
25.4
100
AcDbCircle
 10
444.1092649177
 20
249.2897226335
 30
0.0
 40
3.299999999999999
  0
CIRCLE
  5
1C8
330
192
100
AcDbEntity
  8
DV2_Default
  6
HIDDEN2
 62
     7
 48
25.4
100
AcDbCircle
 10
423.3933885477
 20
249.2897226335
 30
0.0
 40
3.6
  0
CIRCLE
  5
1C9
330
192
100
AcDbEntity
  8
DV2_Default
  6
HIDDEN2
 62
     7
 48
25.4
100
AcDbCircle
 10
423.3933885477
 20
249.2897226335
 30
0.0
 40
3.299999999999999
  0
LINE
  5
1CA
330
192
100
AcDbEntity
  8
DV2_Default
  6
CENTER2
 62
     7
 48
25.4
100
AcDbLine
 10
424.32513711
 20
252.7670556081
 30
0.0
 11
422.4616399853
 21
245.8123896588
 31
0.0
  0
LINE
  5
1CB
330
192
100
AcDbEntity
  8
DV2_Default
  6
CENTER2
 62
     7
 48
25.4
100
AcDbLine
 10
443.1775163553
 20
252.7670556081
 30
0.0
 11
445.04101348
 21
245.8123896588
 31
0.0
  0
LINE
  5
1CC
330
192
100
AcDbEntity
  8
DV2_Default
  6
CENTER2
 62
     7
 48
25.4
100
AcDbLine
 10
433.7513267327
 20
254.0460742016
 30
0.0
 11
433.7513267327
 21
247.1460742016
 31
0.0
  0
LINE
  5
1CD
330
192
100
AcDbEntity
  8
DV2_Default
  6
CENTER2
 62
     7
 48
25.4
100
AcDbLine
 10
425.4377427222
 20
358.7460742016
 30
0.0
 11
442.0654304748
 21
358.7460742016
 31
0.0
  0
LINE
  5
1CE
330
192
100
AcDbEntity
  8
DV2_Default
  6
CENTER2
 62
     7
 48
25.4
100
AcDbLine
 10
425.4377427222
 20
340.7460742016
 30
0.0
 11
442.0654304748
 21
340.7460742016
 31
0.0
  0
LINE
  5
1CF
330
192
100
AcDbEntity
  8
DV2_Default
  6
Continuous
 62
     7
 48
25.4
100
AcDbLine
 10
364.1258482845
 20
229.0416367553
 30
0.0
 11
414.8313341346
 21
258.3164626603
 31
0.0
  0
LINE
  5
1D0
330
192
100
AcDbEntity
  8
DV2_Default
  6
Continuous
 62
     7
 48
25.4
100
AcDbLine
 10
398.6313341346
 20
286.3756857429
 30
0.0
 11
347.9258482845
 21
257.1008598379
 31
0.0
  0
LINE
  5
1D1
330
192
100
AcDbEntity
  8
DV2_Default
  6
Continuous
 62
     7
 48
25.4
100
AcDbLine
 10
369.024808057
 20
233.2556931448
 30
0.0
 11
426.7020999491
 21
266.5556931448
 31
0.0
  0
LINE
  5
1D2
330
192
100
AcDbEntity
  8
DV2_Default
  6
Continuous
 62
     7
 48
25.4
100
AcDbLine
 10
354.024808057
 20
259.2364552583
 30
0.0
 11
411.7020999491
 21
292.5364552583
 31
0.0
  0
LINE
  5
1D3
330
192
100
AcDbEntity
  8
DV2_Default
  6
Continuous
 62
     7
 48
25.4
100
AcDbLine
 10
411.7020999491
 20
292.5364552583
 30
0.0
 11
426.7020999491
 21
266.5556931448
 31
0.0
  0
LINE
  5
1D4
330
192
100
AcDbEntity
  8
DV2_Default
  6
Continuous
 62
     7
 48
25.4
100
AcDbLine
 10
369.024808057
 20
233.2556931448
 30
0.0
 11
354.024808057
 21
259.2364552583
 31
0.0
  0
CIRCLE
  5
1D5
330
192
100
AcDbEntity
  8
DV2_Default
  6
Continuous
 62
     7
 48
25.4
100
AcDbCircle
 10
372.4365982118
 20
252.546299252
 30
0.0
 40
7.499999999999999
  0
LINE
  5
1D6
330
192
100
AcDbEntity
  8
DV2_Default
  6
Continuous
 62
     7
 48
25.4
100
AcDbLine
 10
368.2796762736
 20
250.146299252
 30
0.0
 11
372.4365982118
 21
247.746299252
 31
0.0
  0
LINE
  5
1D7
330
192
100
AcDbEntity
  8
DV2_Default
  6
Continuous
 62
     7
 48
25.4
100
AcDbLine
 10
372.4365982118
 20
247.746299252
 30
0.0
 11
376.59352015
 21
250.146299252
 31
0.0
  0
LINE
  5
1D8
330
192
100
AcDbEntity
  8
DV2_Default
  6
Continuous
 62
     7
 48
25.4
100
AcDbLine
 10
376.59352015
 20
250.146299252
 30
0.0
 11
376.59352015
 21
254.946299252
 31
0.0
  0
LINE
  5
1D9
330
192
100
AcDbEntity
  8
DV2_Default
  6
Continuous
 62
     7
 48
25.4
100
AcDbLine
 10
376.59352015
 20
254.946299252
 30
0.0
 11
372.4365982118
 21
257.346299252
 31
0.0
  0
LINE
  5
1DA
330
192
100
AcDbEntity
  8
DV2_Default
  6
Continuous
 62
     7
 48
25.4
100
AcDbLine
 10
372.4365982118
 20
257.346299252
 30
0.0
 11
368.2796762736
 21
254.946299252
 31
0.0
  0
LINE
  5
1DB
330
192
100
AcDbEntity
  8
DV2_Default
  6
Continuous
 62
     7
 48
25.4
100
AcDbLine
 10
368.2796762736
 20
254.946299252
 30
0.0
 11
368.2796762736
 21
250.146299252
 31
0.0
  0
CIRCLE
  5
1DC
330
192
100
AcDbEntity
  8
DV2_Default
  6
Continuous
 62
     7
 48
25.4
100
AcDbCircle
 10
388.0250554799
 20
261.546299252
 30
0.0
 40
7.499999999999999
  0
LINE
  5
1DD
330
192
100
AcDbEntity
  8
DV2_Default
  6
Continuous
 62
     7
 48
25.4
100
AcDbLine
 10
392.1819774181
 20
263.946299252
 30
0.0
 11
392.1819774181
 21
259.146299252
 31
0.0
  0
LINE
  5
1DE
330
192
100
AcDbEntity
  8
DV2_Default
  6
Continuous
 62
     7
 48
25.4
100
AcDbLine
 10
392.1819774181
 20
259.146299252
 30
0.0
 11
388.0250554799
 21
256.746299252
 31
0.0
  0
LINE
  5
1DF
330
192
100
AcDbEntity
  8
DV2_Default
  6
Continuous
 62
     7
 48
25.4
100
AcDbLine
 10
388.0250554799
 20
256.746299252
 30
0.0
 11
383.8681335418
 21
259.146299252
 31
0.0
  0
LINE
  5
1E0
330
192
100
AcDbEntity
  8
DV2_Default
  6
Continuous
 62
     7
 48
25.4
100
AcDbLine
 10
383.8681335418
 20
259.146299252
 30
0.0
 11
383.8681335418
 21
263.946299252
 31
0.0
  0
LINE
  5
1E1
330
192
100
AcDbEntity
  8
DV2_Default
  6
Continuous
 62
     7
 48
25.4
100
AcDbLine
 10
383.8681335418
 20
263.946299252
 30
0.0
 11
388.0250554799
 21
266.346299252
 31
0.0
  0
LINE
  5
1E2
330
192
100
AcDbEntity
  8
DV2_Default
  6
Continuous
 62
     7
 48
25.4
100
AcDbLine
 10
388.0250554799
 20
266.346299252
 30
0.0
 11
392.1819774181
 21
263.946299252
 31
0.0
  0
LINE
  5
1E3
330
192
100
AcDbEntity
  8
DV2_Default
  6
Continuous
 62
     7
 48
25.4
100
AcDbLine
 10
414.8313341346
 20
258.3164626603
 30
0.0
 11
414.2313341346
 21
259.3556931448
 31
0.0
  0
LINE
  5
1E4
330
192
100
AcDbEntity
  8
DV2_Default
  6
Continuous
 62
     7
 48
25.4
100
AcDbLine
 10
398.6313341346
 20
286.3756857429
 30
0.0
 11
399.2313341346
 21
285.3364552583
 31
0.0
  0
LINE
  5
1E5
330
192
100
AcDbEntity
  8
DV2_Default
  6
Continuous
 62
     7
 48
25.4
100
AcDbLine
 10
352.1717336962
 20
240.8460742016
 30
0.0
 11
360.2717336962
 21
226.8164626603
 31
0.0
  0
LINE
  5
1E6
330
192
100
AcDbEntity
  8
DV2_Default
  6
Continuous
 62
     7
 48
25.4
100
AcDbLine
 10
360.2717336962
 20
226.8164626603
 30
0.0
 11
364.1258482845
 21
229.0416367553
 31
0.0
  0
LINE
  5
1E7
330
192
100
AcDbEntity
  8
DV2_Default
  6
Continuous
 62
     7
 48
25.4
100
AcDbLine
 10
369.024808057
 20
233.2556931448
 30
0.0
 11
359.6717336962
 21
227.8556931448
 31
0.0
  0
LINE
  5
1E8
330
192
100
AcDbEntity
  8
DV2_Default
  6
Continuous
 62
     7
 48
25.4
100
AcDbLine
 10
360.2717336962
 20
226.8164626603
 30
0.0
 11
366.6356947268
 21
220.4525016296
 31
0.0
  0
LINE
  5
1E9
330
192
100
AcDbEntity
  8
DV2_Default
  6
Continuous
 62
     7
 48
25.4
100
AcDbLine
 10
366.6356947268
 20
220.4525016296
 30
0.0
 11
370.2156167039
 21
222.5193705467
 31
0.0
  0
LINE
  5
1EA
330
192
100
AcDbEntity
  8
DV2_Default
  6
Continuous
 62
     7
 48
25.4
100
AcDbLine
 10
352.1717336962
 20
240.8460742016
 30
0.0
 11
344.0717336962
 21
254.8756857429
 31
0.0
  0
LINE
  5
1EB
330
192
100
AcDbEntity
  8
DV2_Default
  6
Continuous
 62
     7
 48
25.4
100
AcDbLine
 10
344.0717336962
 20
254.8756857429
 30
0.0
 11
347.9258482845
 21
257.1008598379
 31
0.0
  0
LINE
  5
1EC
330
192
100
AcDbEntity
  8
DV2_Default
  6
Continuous
 62
     7
 48
25.4
100
AcDbLine
 10
344.0717336962
 20
254.8756857429
 30
0.0
 11
341.7423622902
 21
263.5690181795
 31
0.0
  0
LINE
  5
1ED
330
192
100
AcDbEntity
  8
DV2_Default
  6
Continuous
 62
     7
 48
25.4
100
AcDbLine
 10
341.7423622902
 20
263.5690181795
 30
0.0
 11
345.3222842673
 21
265.6358870966
 31
0.0
  0
LINE
  5
1EE
330
192
100
AcDbEntity
  8
DV2_Default
  6
Continuous
 62
     7
 48
25.4
100
AcDbLine
 10
354.024808057
 20
259.2364552583
 30
0.0
 11
344.6930908119
 21
253.8487857948
 31
0.0
  0
LINE
  5
1EF
330
192
100
AcDbEntity
  8
DV2_Default
  6
Continuous
 62
     7
 48
25.4
100
AcDbLine
 10
364.674808057
 20
240.7901141577
 30
0.0
 11
355.3217336962
 21
235.3901141577
 31
0.0
  0
LINE
  5
1F0
330
192
100
AcDbEntity
  8
DV2_Default
  6
Continuous
 62
     7
 48
25.4
100
AcDbLine
 10
358.374808057
 20
251.7020342454
 30
0.0
 11
349.0217336962
 21
246.3020342454
 31
0.0
  0
LINE
  5
1F1
330
192
100
AcDbEntity
  8
DV2_Default
  6
CENTER2
 62
     7
 48
25.4
100
AcDbLine
 10
376.59352015
 20
245.346299252
 30
0.0
 11
368.2796762736
 21
259.746299252
 31
0.0
  0
LINE
  5
1F2
330
192
100
AcDbEntity
  8
DV2_Default
  6
CENTER2
 62
     7
 48
25.4
100
AcDbLine
 10
392.1819774181
 20
254.346299252
 30
0.0
 11
383.8681335418
 21
268.746299252
 31
0.0
  0
LINE
  5
1F3
330
192
100
AcDbEntity
  8
DV2_Default
  6
Continuous
 62
     7
 48
25.4
100
AcDbLine
 10
519.5768051809
 20
257.1008598379
 30
0.0
 11
468.8713193307
 21
286.3756857429
 31
0.0
  0
LINE
  5
1F4
330
192
100
AcDbEntity
  8
DV2_Default
  6
Continuous
 62
     7
 48
25.4
100
AcDbLine
 10
452.6713193307
 20
258.3164626603
 30
0.0
 11
503.3768051809
 21
229.0416367553
 31
0.0
  0
LINE
  5
1F5
330
192
100
AcDbEntity
  8
DV2_Default
  6
Continuous
 62
     7
 48
25.4
100
AcDbLine
 10
513.4778454083
 20
259.2364552583
 30
0.0
 11
455.8005535162
 21
292.5364552583
 31
0.0
  0
LINE
  5
1F6
330
192
100
AcDbEntity
  8
DV2_Default
  6
Continuous
 62
     7
 48
25.4
100
AcDbLine
 10
498.4778454083
 20
233.2556931448
 30
0.0
 11
440.8005535162
 21
266.5556931448
 31
0.0
  0
LINE
  5
1F7
330
192
100
AcDbEntity
  8
DV2_Default
  6
Continuous
 62
     7
 48
25.4
100
AcDbLine
 10
440.8005535162
 20
266.5556931448
 30
0.0
 11
455.8005535162
 21
292.5364552583
 31
0.0
  0
LINE
  5
1F8
330
192
100
AcDbEntity
  8
DV2_Default
  6
Continuous
 62
     7
 48
25.4
100
AcDbLine
 10
513.4778454083
 20
259.2364552583
 30
0.0
 11
498.4778454083
 21
233.2556931448
 31
0.0
  0
CIRCLE
  5
1F9
330
192
100
AcDbEntity
  8
DV2_Default
  6
Continuous
 62
     7
 48
25.4
100
AcDbCircle
 10
495.0657953877
 20
252.5458491512
 30
0.0
 40
7.499999999999999
  0
LINE
  5
1FA
330
192
100
AcDbEntity
  8
DV2_Default
  6
Continuous
 62
     7
 48
25.4
100
AcDbLine
 10
499.2227173259
 20
250.1458491512
 30
0.0
 11
499.2227173259
 21
254.9458491512
 31
0.0
  0
LINE
  5
1FB
330
192
100
AcDbEntity
  8
DV2_Default
  6
Continuous
 62
     7
 48
25.4
100
AcDbLine
 10
499.2227173259
 20
254.9458491512
 30
0.0
 11
495.0657953877
 21
257.3458491512
 31
0.0
  0
LINE
  5
1FC
330
192
100
AcDbEntity
  8
DV2_Default
  6
Continuous
 62
     7
 48
25.4
100
AcDbLine
 10
495.0657953877
 20
257.3458491512
 30
0.0
 11
490.9088734495
 21
254.9458491512
 31
0.0
  0
LINE
  5
1FD
330
192
100
AcDbEntity
  8
DV2_Default
  6
Continuous
 62
     7
 48
25.4
100
AcDbLine
 10
490.9088734495
 20
254.9458491512
 30
0.0
 11
490.9088734495
 21
250.1458491512
 31
0.0
  0
LINE
  5
1FE
330
192
100
AcDbEntity
  8
DV2_Default
  6
Continuous
 62
     7
 48
25.4
100
AcDbLine
 10
490.9088734495
 20
250.1458491512
 30
0.0
 11
495.0657953877
 21
247.7458491512
 31
0.0
  0
LINE
  5
1FF
330
192
100
AcDbEntity
  8
DV2_Default
  6
Continuous
 62
     7
 48
25.4
100
AcDbLine
 10
495.0657953877
 20
247.7458491512
 30
0.0
 11
499.2227173259
 21
250.1458491512
 31
0.0
  0
CIRCLE
  5
200
330
192
100
AcDbEntity
  8
DV2_Default
  6
Continuous
 62
     7
 48
25.4
100
AcDbCircle
 10
479.4773381196
 20
261.5458491512
 30
0.0
 40
7.499999999999999
  0
LINE
  5
201
330
192
100
AcDbEntity
  8
DV2_Default
  6
Continuous
 62
     7
 48
25.4
100
AcDbLine
 10
475.3204161814
 20
263.9458491512
 30
0.0
 11
479.4773381196
 21
266.3458491512
 31
0.0
  0
LINE
  5
202
330
192
100
AcDbEntity
  8
DV2_Default
  6
Continuous
 62
     7
 48
25.4
100
AcDbLine
 10
479.4773381196
 20
266.3458491512
 30
0.0
 11
483.6342600577
 21
263.9458491512
 31
0.0
  0
LINE
  5
203
330
192
100
AcDbEntity
  8
DV2_Default
  6
Continuous
 62
     7
 48
25.4
100
AcDbLine
 10
483.6342600577
 20
263.9458491512
 30
0.0
 11
483.6342600577
 21
259.1458491512
 31
0.0
  0
LINE
  5
204
330
192
100
AcDbEntity
  8
DV2_Default
  6
Continuous
 62
     7
 48
25.4
100
AcDbLine
 10
483.6342600577
 20
259.1458491512
 30
0.0
 11
479.4773381196
 21
256.7458491512
 31
0.0
  0
LINE
  5
205
330
192
100
AcDbEntity
  8
DV2_Default
  6
Continuous
 62
     7
 48
25.4
100
AcDbLine
 10
479.4773381196
 20
256.7458491512
 30
0.0
 11
475.3204161814
 21
259.1458491512
 31
0.0
  0
LINE
  5
206
330
192
100
AcDbEntity
  8
DV2_Default
  6
Continuous
 62
     7
 48
25.4
100
AcDbLine
 10
475.3204161814
 20
259.1458491512
 30
0.0
 11
475.3204161814
 21
263.9458491512
 31
0.0
  0
LINE
  5
207
330
192
100
AcDbEntity
  8
DV2_Default
  6
Continuous
 62
     7
 48
25.4
100
AcDbLine
 10
468.8713193307
 20
286.3756857429
 30
0.0
 11
468.2713193307
 21
285.3364552583
 31
0.0
  0
LINE
  5
208
330
192
100
AcDbEntity
  8
DV2_Default
  6
Continuous
 62
     7
 48
25.4
100
AcDbLine
 10
452.6713193307
 20
258.3164626603
 30
0.0
 11
453.2713193307
 21
259.3556931448
 31
0.0
  0
LINE
  5
209
330
192
100
AcDbEntity
  8
DV2_Default
  6
Continuous
 62
     7
 48
25.4
100
AcDbLine
 10
515.3309197692
 20
240.8460742016
 30
0.0
 11
523.4309197692
 21
254.8756857429
 31
0.0
  0
LINE
  5
20A
330
192
100
AcDbEntity
  8
DV2_Default
  6
Continuous
 62
     7
 48
25.4
100
AcDbLine
 10
523.4309197692
 20
254.8756857429
 30
0.0
 11
519.5768051809
 21
257.1008598379
 31
0.0
  0
LINE
  5
20B
330
192
100
AcDbEntity
  8
DV2_Default
  6
Continuous
 62
     7
 48
25.4
100
AcDbLine
 10
513.4778454083
 20
259.2364552583
 30
0.0
 11
522.8309197692
 21
253.8364552583
 31
0.0
  0
LINE
  5
20C
330
192
100
AcDbEntity
  8
DV2_Default
  6
Continuous
 62
     7
 48
25.4
100
AcDbLine
 10
523.4309197692
 20
254.8756857429
 30
0.0
 11
525.7602911751
 21
263.5690181795
 31
0.0
  0
LINE
  5
20D
330
192
100
AcDbEntity
  8
DV2_Default
  6
Continuous
 62
     7
 48
25.4
100
AcDbLine
 10
525.7602911751
 20
263.5690181795
 30
0.0
 11
522.180369198
 21
265.6358870966
 31
0.0
  0
LINE
  5
20E
330
192
100
AcDbEntity
  8
DV2_Default
  6
Continuous
 62
     7
 48
25.4
100
AcDbLine
 10
515.3309197692
 20
240.8460742016
 30
0.0
 11
507.2309197692
 21
226.8164626603
 31
0.0
  0
LINE
  5
20F
330
192
100
AcDbEntity
  8
DV2_Default
  6
Continuous
 62
     7
 48
25.4
100
AcDbLine
 10
507.2309197692
 20
226.8164626603
 30
0.0
 11
503.3768051809
 21
229.0416367553
 31
0.0
  0
LINE
  5
210
330
192
100
AcDbEntity
  8
DV2_Default
  6
Continuous
 62
     7
 48
25.4
100
AcDbLine
 10
507.2309197692
 20
226.8164626603
 30
0.0
 11
500.8669587385
 21
220.4525016296
 31
0.0
  0
LINE
  5
211
330
192
100
AcDbEntity
  8
DV2_Default
  6
Continuous
 62
     7
 48
25.4
100
AcDbLine
 10
500.8669587385
 20
220.4525016296
 30
0.0
 11
497.2870367614
 21
222.5193705467
 31
0.0
  0
LINE
  5
212
330
192
100
AcDbEntity
  8
DV2_Default
  6
Continuous
 62
     7
 48
25.4
100
AcDbLine
 10
498.4778454083
 20
233.2556931448
 30
0.0
 11
507.8095626534
 21
227.8680236813
 31
0.0
  0
LINE
  5
213
330
192
100
AcDbEntity
  8
DV2_Default
  6
Continuous
 62
     7
 48
25.4
100
AcDbLine
 10
509.1278454083
 20
251.7020342454
 30
0.0
 11
518.4809197692
 21
246.3020342454
 31
0.0
  0
LINE
  5
214
330
192
100
AcDbEntity
  8
DV2_Default
  6
Continuous
 62
     7
 48
25.4
100
AcDbLine
 10
502.8278454083
 20
240.7901141577
 30
0.0
 11
512.1809197692
 21
235.3901141577
 31
0.0
  0
LINE
  5
215
330
192
100
AcDbEntity
  8
DV2_Default
  6
CENTER2
 62
     7
 48
25.4
100
AcDbLine
 10
499.2227173259
 20
259.7458491512
 30
0.0
 11
490.9088734495
 21
245.3458491512
 31
0.0
  0
LINE
  5
216
330
192
100
AcDbEntity
  8
DV2_Default
  6
CENTER2
 62
     7
 48
25.4
100
AcDbLine
 10
483.6342600577
 20
268.7458491512
 30
0.0
 11
475.3204161814
 21
254.3458491512
 31
0.0
  0
LINE
  5
217
330
192
100
AcDbEntity
  8
DV2_Default
  6
Continuous
 62
     7
 48
25.4
100
AcDbLine
 10
465.1070908143
 20
305.357836733
 30
0.0
 11
466.3070908143
 21
305.357836733
 31
0.0
  0
LINE
  5
218
330
192
100
AcDbEntity
  8
DV2_Default
  6
Continuous
 62
     7
 48
25.4
100
AcDbLine
 10
466.3070908143
 20
305.357836733
 30
0.0
 11
466.9070908143
 21
306.3970672176
 31
0.0
  0
LINE
  5
219
330
192
100
AcDbEntity
  8
DV2_Default
  6
Continuous
 62
     7
 48
25.4
100
AcDbLine
 10
466.9070908143
 20
306.3970672176
 30
0.0
 11
466.3070908143
 21
307.4362977021
 31
0.0
  0
LINE
  5
21A
330
192
100
AcDbEntity
  8
DV2_Default
  6
Continuous
 62
     7
 48
25.4
100
AcDbLine
 10
466.3070908143
 20
307.4362977021
 30
0.0
 11
465.1070908143
 21
307.4362977021
 31
0.0
  0
LINE
  5
21B
330
192
100
AcDbEntity
  8
DV2_Default
  6
Continuous
 62
     7
 48
25.4
100
AcDbLine
 10
465.1070908143
 20
307.4362977021
 30
0.0
 11
464.5070908143
 21
306.3970672176
 31
0.0
  0
LINE
  5
21C
330
192
100
AcDbEntity
  8
DV2_Default
  6
Continuous
 62
     7
 48
25.4
100
AcDbLine
 10
465.1070908143
 20
305.357836733
 30
0.0
 11
464.5070908143
 21
306.3970672176
 31
0.0
  0
CIRCLE
  5
21D
330
192
100
AcDbEntity
  8
DV2_Default
  6
Continuous
 62
     7
 48
25.4
100
AcDbCircle
 10
465.7076641323
 20
306.3960742016
 30
0.0
 40
3.0
  0
CIRCLE
  5
21E
330
192
100
AcDbEntity
  8
DV2_Default
  6
Continuous
 62
     7
 48
25.4
100
AcDbCircle
 10
478.2823529953
 20
313.6560742016
 30
0.0
 40
7.5
  0
CIRCLE
  5
21F
330
192
100
AcDbEntity
  8
DV2_Default
  6
Continuous
 62
     7
 48
25.4
100
AcDbCircle
 10
478.2823529953
 20
313.6560742016
 30
0.0
 40
5.100000000000001
  0
LINE
  5
220
330
192
100
AcDbEntity
  8
DV2_Default
  6
CENTER2
 62
     7
 48
25.4
100
AcDbLine
 10
471.7871624669
 20
309.9060742016
 30
0.0
 11
484.7775435236
 21
317.4060742016
 31
0.0
  0
CIRCLE
  5
221
330
192
100
AcDbEntity
  8
DV2_Default
  6
HIDDEN2
 62
     7
 48
25.4
100
AcDbCircle
 10
462.0497401158
 20
316.2444875846
 30
0.0
 40
3.6
  0
CIRCLE
  5
222
330
192
100
AcDbEntity
  8
DV2_Default
  6
HIDDEN2
 62
     7
 48
25.4
100
AcDbCircle
 10
462.0497401158
 20
316.2444875846
 30
0.0
 40
3.299999999999999
  0
CIRCLE
  5
223
330
192
100
AcDbEntity
  8
DV2_Default
  6
HIDDEN2
 62
     7
 48
25.4
100
AcDbCircle
 10
472.4076783008
 20
298.3040123866
 30
0.0
 40
3.6
  0
CIRCLE
  5
224
330
192
100
AcDbEntity
  8
DV2_Default
  6
HIDDEN2
 62
     7
 48
25.4
100
AcDbCircle
 10
472.4076783008
 20
298.3040123866
 30
0.0
 40
3.299999999999999
  0
LINE
  5
225
330
192
100
AcDbEntity
  8
DV2_Default
  6
CENTER2
 62
     7
 48
25.4
100
AcDbLine
 10
468.9303453261
 20
297.3722638242
 30
0.0
 11
475.8850112754
 21
299.2357609489
 31
0.0
  0
LINE
  5
226
330
192
100
AcDbEntity
  8
DV2_Default
  6
CENTER2
 62
     7
 48
25.4
100
AcDbLine
 10
459.5041557035
 20
313.6989031724
 30
0.0
 11
464.595324528
 21
318.7900719969
 31
0.0
  0
LINE
  5
227
330
192
100
AcDbEntity
  8
DV2_Default
  6
CENTER2
 62
     7
 48
25.4
100
AcDbLine
 10
463.109587921
 20
304.8960742016
 30
0.0
 11
469.0851632071
 21
308.3460742016
 31
0.0
  0
LINE
  5
228
330
192
100
AcDbEntity
  8
DV2_Default
  6
Continuous
 62
     7
 48
25.4
100
AcDbLine
 10
402.994416015
 20
306.3950811856
 30
0.0
 11
402.394416015
 21
307.4343116701
 31
0.0
  0
LINE
  5
229
330
192
100
AcDbEntity
  8
DV2_Default
  6
Continuous
 62
     7
 48
25.4
100
AcDbLine
 10
402.394416015
 20
307.4343116701
 30
0.0
 11
401.194416015
 21
307.4343116701
 31
0.0
  0
LINE
  5
22A
330
192
100
AcDbEntity
  8
DV2_Default
  6
Continuous
 62
     7
 48
25.4
100
AcDbLine
 10
401.194416015
 20
307.4343116701
 30
0.0
 11
400.594416015
 21
306.3950811856
 31
0.0
  0
LINE
  5
22B
330
192
100
AcDbEntity
  8
DV2_Default
  6
Continuous
 62
     7
 48
25.4
100
AcDbLine
 10
400.594416015
 20
306.3950811856
 30
0.0
 11
401.194416015
 21
305.355850701
 31
0.0
  0
LINE
  5
22C
330
192
100
AcDbEntity
  8
DV2_Default
  6
Continuous
 62
     7
 48
25.4
100
AcDbLine
 10
401.194416015
 20
305.355850701
 30
0.0
 11
402.394416015
 21
305.355850701
 31
0.0
  0
LINE
  5
22D
330
192
100
AcDbEntity
  8
DV2_Default
  6
Continuous
 62
     7
 48
25.4
100
AcDbLine
 10
402.994416015
 20
306.3950811856
 30
0.0
 11
402.394416015
 21
305.355850701
 31
0.0
  0
CIRCLE
  5
22E
330
192
100
AcDbEntity
  8
DV2_Default
  6
Continuous
 62
     7
 48
25.4
100
AcDbCircle
 10
401.794989333
 20
306.3960742016
 30
0.0
 40
3.0
  0
CIRCLE
  5
22F
330
192
100
AcDbEntity
  8
DV2_Default
  6
Continuous
 62
     7
 48
25.4
100
AcDbCircle
 10
389.2203004701
 20
313.6560742016
 30
0.0
 40
7.5
  0
CIRCLE
  5
230
330
192
100
AcDbEntity
  8
DV2_Default
  6
Continuous
 62
     7
 48
25.4
100
AcDbCircle
 10
389.2203004701
 20
313.6560742016
 30
0.0
 40
5.100000000000001
  0
LINE
  5
231
330
192
100
AcDbEntity
  8
DV2_Default
  6
CENTER2
 62
     7
 48
25.4
100
AcDbLine
 10
395.7154909985
 20
309.9060742016
 30
0.0
 11
382.7251099417
 21
317.4060742016
 31
0.0
  0
CIRCLE
  5
232
330
192
100
AcDbEntity
  8
DV2_Default
  6
HIDDEN2
 62
     7
 48
25.4
100
AcDbCircle
 10
395.0949751646
 20
298.3040123866
 30
0.0
 40
3.6
  0
CIRCLE
  5
233
330
192
100
AcDbEntity
  8
DV2_Default
  6
HIDDEN2
 62
     7
 48
25.4
100
AcDbCircle
 10
395.0949751646
 20
298.3040123866
 30
0.0
 40
3.299999999999999
  0
CIRCLE
  5
234
330
192
100
AcDbEntity
  8
DV2_Default
  6
HIDDEN2
 62
     7
 48
25.4
100
AcDbCircle
 10
405.4529133496
 20
316.2444875846
 30
0.0
 40
3.6
  0
CIRCLE
  5
235
330
192
100
AcDbEntity
  8
DV2_Default
  6
HIDDEN2
 62
     7
 48
25.4
100
AcDbCircle
 10
405.4529133496
 20
316.2444875846
 30
0.0
 40
3.299999999999999
  0
LINE
  5
236
330
192
100
AcDbEntity
  8
DV2_Default
  6
CENTER2
 62
     7
 48
25.4
100
AcDbLine
 10
407.9984977619
 20
313.6989031724
 30
0.0
 11
402.9073289373
 21
318.7900719969
 31
0.0
  0
LINE
  5
237
330
192
100
AcDbEntity
  8
DV2_Default
  6
CENTER2
 62
     7
 48
25.4
100
AcDbLine
 10
398.5723081392
 20
297.3722638242
 30
0.0
 11
391.6176421899
 21
299.2357609489
 31
0.0
  0
LINE
  5
238
330
192
100
AcDbEntity
  8
DV2_Default
  6
CENTER2
 62
     7
 48
25.4
100
AcDbLine
 10
404.3930655444
 20
304.8960742016
 30
0.0
 11
398.4174902583
 21
308.3460742016
 31
0.0
  0
ARC
  5
239
330
192
100
AcDbEntity
  8
DV2_Default
  6
CENTER2
 62
     7
 48
25.4
100
AcDbCircle
 10
433.7513267327
 20
287.9460742016
 30
0.0
 40
51.41999999999999
100
AcDbArc
 50
21.6355468977
 51
38.3644531023
  0
ARC
  5
23A
330
192
100
AcDbEntity
  8
DV2_Default
  6
CENTER2
 62
     7
 48
25.4
100
AcDbCircle
 10
433.7513267327
 20
287.9460742016
 30
0.0
 40
51.41999999999999
100
AcDbArc
 50
141.6355468977
 51
158.3644531023
  0
ARC
  5
23B
330
192
100
AcDbEntity
  8
DV2_Default
  6
CENTER2
 62
     7
 48
25.4
100
AcDbCircle
 10
433.7513267327
 20
287.9460742016
 30
0.0
 40
51.41999999999999
100
AcDbArc
 50
261.6355468977
 51
278.3644531023
  0
ARC
  5
23C
330
192
100
AcDbEntity
  8
DV2_Default
  6
CENTER2
 62
     7
 48
25.4
100
AcDbCircle
 10
433.7513267327
 20
287.9460742016
 30
0.0
 40
36.9
100
AcDbArc
 50
145.3405226791
 51
154.6594773209
  0
ARC
  5
23D
330
192
100
AcDbEntity
  8
DV2_Default
  6
CENTER2
 62
     7
 48
25.4
100
AcDbCircle
 10
433.7513267327
 20
287.9460742016
 30
0.0
 40
40.02000000000001
100
AcDbArc
 50
159.8442175302
 51
170.1557824698
  0
ARC
  5
23E
330
192
100
AcDbEntity
  8
DV2_Default
  6
CENTER2
 62
     7
 48
25.4
100
AcDbCircle
 10
433.7513267327
 20
287.9460742016
 30
0.0
 40
40.02000000000001
100
AcDbArc
 50
129.8442175302
 51
140.1557824698
  0
ARC
  5
23F
330
192
100
AcDbEntity
  8
DV2_Default
  6
CENTER2
 62
     7
 48
25.4
100
AcDbCircle
 10
433.7513267327
 20
287.9460742016
 30
0.0
 40
40.02000000000001
100
AcDbArc
 50
39.8442175302
 51
50.1557824698
  0
ARC
  5
240
330
192
100
AcDbEntity
  8
DV2_Default
  6
CENTER2
 62
     7
 48
25.4
100
AcDbCircle
 10
433.7513267327
 20
287.9460742016
 30
0.0
 40
36.9
100
AcDbArc
 50
25.3405226791
 51
34.6594773209
  0
ARC
  5
241
330
192
100
AcDbEntity
  8
DV2_Default
  6
CENTER2
 62
     7
 48
25.4
100
AcDbCircle
 10
433.7513267327
 20
287.9460742016
 30
0.0
 40
40.02000000000001
100
AcDbArc
 50
9.8442175302
 51
20.1557824698
  0
ARC
  5
242
330
192
100
AcDbEntity
  8
DV2_Default
  6
CENTER2
 62
     7
 48
25.4
100
AcDbCircle
 10
433.7513267327
 20
287.9460742016
 30
0.0
 40
40.02000000000001
100
AcDbArc
 50
279.8442175302
 51
290.1557824698
  0
ARC
  5
243
330
192
100
AcDbEntity
  8
DV2_Default
  6
CENTER2
 62
     7
 48
25.4
100
AcDbCircle
 10
433.7513267327
 20
287.9460742016
 30
0.0
 40
40.02000000000001
100
AcDbArc
 50
249.8442175302
 51
260.1557824698
  0
ARC
  5
244
330
192
100
AcDbEntity
  8
DV2_Default
  6
CENTER2
 62
     7
 48
25.4
100
AcDbCircle
 10
433.7513267327
 20
287.9460742016
 30
0.0
 40
36.9
100
AcDbArc
 50
265.3405226791
 51
274.6594773209
  0
ARC
  5
245
330
192
100
AcDbEntity
  8
DV2_Default
  6
Continuous
 62
     7
 48
25.4
100
AcDbCircle
 10
433.7513267327
 20
287.9460742016
 30
0.0
 40
40.8
100
AcDbArc
 50
353.3944396226
 51
66.6055603774
  0
ARC
  5
246
330
192
100
AcDbEntity
  8
DV2_Default
  6
Continuous
 62
     7
 48
25.4
100
AcDbCircle
 10
433.7513267327
 20
287.9460742016
 30
0.0
 40
40.8
100
AcDbArc
 50
113.3944396226
 51
186.6055603774
  0
ARC
  5
247
330
192
100
AcDbEntity
  8
DV2_Default
  6
Continuous
 62
     7
 48
25.4
100
AcDbCircle
 10
433.7513267327
 20
287.9460742016
 30
0.0
 40
40.8
100
AcDbArc
 50
233.3944396226
 51
306.6055603774
  0
ARC
  5
248
330
192
100
AcDbEntity
  8
DV2_Default
  6
Continuous
 62
     7
 48
25.4
100
AcDbCircle
 10
433.7513267327
 20
287.9460742016
 30
0.0
 40
18.6
100
AcDbArc
 50
115.4146209152
 51
184.5853790848
  0
ARC
  5
249
330
192
100
AcDbEntity
  8
DV2_Default
  6
Continuous
 62
     7
 48
25.4
100
AcDbCircle
 10
433.7513267327
 20
287.9460742016
 30
0.0
 40
18.6
100
AcDbArc
 50
235.4146209152
 51
304.5853790848
  0
ARC
  5
24A
330
192
100
AcDbEntity
  8
DV2_Default
  6
Continuous
 62
     7
 48
25.4
100
AcDbCircle
 10
433.7513267327
 20
287.9460742016
 30
0.0
 40
91.19999999999999
100
AcDbArc
 50
100.2318362662
 51
199.7681637338
  0
ARC
  5
24B
330
192
100
AcDbEntity
  8
DV2_Default
  6
Continuous
 62
     7
 48
25.4
100
AcDbCircle
 10
433.7513267327
 20
287.9460742016
 30
0.0
 40
91.19999999999999
100
AcDbArc
 50
340.2318362662
 51
79.7681637338
  0
LINE
  5
24C
330
192
100
AcDbEntity
  8
DV2_Default
  6
CENTER2
 62
     7
 48
25.4
100
AcDbLine
 10
433.7513267327
 20
287.9460742016
 30
0.0
 11
348.014811758
 21
238.4460742016
 31
0.0
  0
LINE
  5
24D
330
192
100
AcDbEntity
  8
DV2_Default
  6
CENTER2
 62
     7
 48
25.4
100
AcDbLine
 10
433.7513267327
 20
287.9460742016
 30
0.0
 11
519.4878417073
 21
238.4460742016
 31
0.0
  0
ENDBLK
  5
24F
330
192
100
AcDbEntity
  8
0
100
AcDbBlockEnd
  0
BLOCK
  5
2DC
330
250
100
AcDbEntity
  8
0
100
AcDbBlockBegin
  2
SE2
 70
     0
 71
     0
 10
0.0
 20
0.0
 30
0.0
  3
SE2
  1

  0
TEXT
  5
252
330
250
100
AcDbEntity
  8
DV3_Default
  6
Continuous
 62
     7
 48
25.4
100
AcDbText
 10
337.3439934102
 20
24.9248235352
 30
0.0
 40
3.6
  1
Speed in min-
  7
SEACAD_arial_ttf
 11
337.3439934102
 21
28.5248235352
 31
0.0
100
AcDbText
 73
     3
  0
TEXT
  5
254
330
250
100
AcDbEntity
  8
DV3_Default
  6
Continuous
 62
     7
 48
25.4
100
AcDbText
 10
368.5700803667
 20
24.9248235352
 30
0.0
 40
2.7516666667
  1
¹
  7
SEACAD_arial_ttf
 11
368.5700803667
 21
27.6764902018
 31
0.0
100
AcDbText
 73
     3
  0
TEXT
  5
255
330
250
100
AcDbEntity
  8
DV3_Default
  6
Continuous
 62
     7
 48
25.4
100
AcDbText
 10
244.93054807
 20
89.7329747492
 30
0.0
 40
3.6
  1
Total Gripping 
  7
SEACAD_arial_ttf
 11
244.93054807
 21
93.3329747492
 31
0.0
100
AcDbText
 73
     3
  0
TEXT
  5
256
330
250
100
AcDbEntity
  8
DV3_Default
  6
Continuous
 62
     7
 48
25.4
100
AcDbText
 10
244.93054807
 20
84.0981921405
 30
0.0
 40
3.6
  1
Force in kN
  7
SEACAD_arial_ttf
 11
244.93054807
 21
87.6981921405
 31
0.0
100
AcDbText
 73
     3
  0
TEXT
  5
257
330
250
100
AcDbEntity
  8
DV3_Default
  6
Continuous
 62
     7
 48
25.4
100
AcDbText
 10
296.8940702832
 20
149.8804222301
 30
0.0
 40
3.6
  1
Gripping Characteristic Graph For BL-212A6
  7
SEACAD_arial_ttf
 11
296.8940702832
 21
153.4804222301
 31
0.0
100
AcDbText
 73
     3
  0
TEXT
  5
258
330
250
100
AcDbEntity
  8
DV3_Default
  6
Continuous
 62
     7
 48
25.4
100
AcDbText
 10
39.4196139308
 20
130.1723332549
 30
0.0
 40
3.0
  1
SPINDLE NOSE SIZE
  7
SEACAD_arial_ttf
 11
39.4196139308
 21
133.1723332549
 31
0.0
100
AcDbText
 73
     3
  0
TEXT
  5
259
330
250
100
AcDbEntity
  8
DV3_Default
  6
Continuous
 62
     7
 48
25.4
100
AcDbText
 10
128.7506936034
 20
130.0732749063
 30
0.0
 40
3.0
  1
A2-6
  7
SEACAD_arial_ttf
 11
128.7506936034
 21
133.0732749063
 31
0.0
100
AcDbText
 73
     3
  0
TEXT
  5
25A
330
250
100
AcDbEntity
  8
DV3_Default
  6
Continuous
 62
     7
 48
25.4
100
AcDbText
 10
39.5735057235
 20
65.4361153996
 30
0.0
 40
3.0
  1
TOTAL GRIPPING FORCE AT MAX. SPEED
  7
SEACAD_arial_ttf
 11
39.5735057235
 21
68.4361153996
 31
0.0
100
AcDbText
 73
     3
  0
TEXT
  5
25B
330
250
100
AcDbEntity
  8
DV3_Default
  6
Continuous
 62
     7
 48
25.4
100
AcDbText
 10
128.6154880999
 20
22.144596414
 30
0.0
 40
3.0
  1
SB12N1
  7
SEACAD_arial_ttf
 11
128.6154880999
 21
25.144596414
 31
0.0
100
AcDbText
 73
     3
  0
LINE
  5
25C
330
250
100
AcDbEntity
  8
DV3_Default
  6
Continuous
 62
     7
 48
25.4
100
AcDbLine
 10
37.0684941579
 20
27.2789201033
 30
0.0
 11
181.0684941579
 21
27.2789201033
 31
0.0
  0
LINE
  5
25D
330
250
100
AcDbEntity
  8
DV3_Default
  6
Continuous
 62
     7
 48
25.4
100
AcDbLine
 10
181.0684941579
 20
135.2789201033
 30
0.0
 11
37.0684941579
 21
135.2789201033
 31
0.0
  0
LINE
  5
25E
330
250
100
AcDbEntity
  8
DV3_Default
  6
Continuous
 62
     7
 48
25.4
100
AcDbLine
 10
37.0684941579
 20
128.0789201033
 30
0.0
 11
181.0684941579
 21
128.0789201033
 31
0.0
  0
LINE
  5
25F
330
250
100
AcDbEntity
  8
DV3_Default
  6
Continuous
 62
     7
 48
25.4
100
AcDbLine
 10
181.0684941579
 20
120.8789201033
 30
0.0
 11
37.0684941579
 21
120.8789201033
 31
0.0
  0
LINE
  5
260
330
250
100
AcDbEntity
  8
DV3_Default
  6
Continuous
 62
     7
 48
25.4
100
AcDbLine
 10
37.0684941579
 20
113.6789201033
 30
0.0
 11
181.0684941579
 21
113.6789201033
 31
0.0
  0
LINE
  5
261
330
250
100
AcDbEntity
  8
DV3_Default
  6
Continuous
 62
     7
 48
25.4
100
AcDbLine
 10
181.0684941579
 20
106.4789201033
 30
0.0
 11
37.0684941579
 21
106.4789201033
 31
0.0
  0
LINE
  5
262
330
250
100
AcDbEntity
  8
DV3_Default
  6
Continuous
 62
     7
 48
25.4
100
AcDbLine
 10
37.0684941579
 20
99.2789201033
 30
0.0
 11
181.0684941579
 21
99.2789201033
 31
0.0
  0
LINE
  5
263
330
250
100
AcDbEntity
  8
DV3_Default
  6
Continuous
 62
     7
 48
25.4
100
AcDbLine
 10
181.0684941579
 20
92.0789201033
 30
0.0
 11
37.0684941579
 21
92.0789201033
 31
0.0
  0
LINE
  5
264
330
250
100
AcDbEntity
  8
DV3_Default
  6
Continuous
 62
     7
 48
25.4
100
AcDbLine
 10
37.0684941579
 20
84.8789201033
 30
0.0
 11
181.0684941579
 21
84.8789201033
 31
0.0
  0
LINE
  5
265
330
250
100
AcDbEntity
  8
DV3_Default
  6
Continuous
 62
     7
 48
25.4
100
AcDbLine
 10
181.0684941579
 20
77.6789201033
 30
0.0
 11
37.0684941579
 21
77.6789201033
 31
0.0
  0
LINE
  5
266
330
250
100
AcDbEntity
  8
DV3_Default
  6
Continuous
 62
     7
 48
25.4
100
AcDbLine
 10
37.0684941579
 20
70.4789201033
 30
0.0
 11
181.0684941579
 21
70.4789201033
 31
0.0
  0
LINE
  5
267
330
250
100
AcDbEntity
  8
DV3_Default
  6
Continuous
 62
     7
 48
25.4
100
AcDbLine
 10
181.0684941579
 20
63.2789201033
 30
0.0
 11
37.0684941579
 21
63.2789201033
 31
0.0
  0
LINE
  5
268
330
250
100
AcDbEntity
  8
DV3_Default
  6
Continuous
 62
     7
 48
25.4
100
AcDbLine
 10
37.0684941579
 20
56.0789201033
 30
0.0
 11
181.0684941579
 21
56.0789201033
 31
0.0
  0
LINE
  5
269
330
250
100
AcDbEntity
  8
DV3_Default
  6
Continuous
 62
     7
 48
25.4
100
AcDbLine
 10
181.0684941579
 20
48.8789201033
 30
0.0
 11
37.0684941579
 21
48.8789201033
 31
0.0
  0
LINE
  5
26A
330
250
100
AcDbEntity
  8
DV3_Default
  6
Continuous
 62
     7
 48
25.4
100
AcDbLine
 10
37.0684941579
 20
41.6789201033
 30
0.0
 11
181.0684941579
 21
41.6789201033
 31
0.0
  0
LINE
  5
26B
330
250
100
AcDbEntity
  8
DV3_Default
  6
Continuous
 62
     7
 48
25.4
100
AcDbLine
 10
181.0684941579
 20
34.4789201033
 30
0.0
 11
37.0684941579
 21
34.4789201033
 31
0.0
  0
TEXT
  5
26C
330
250
100
AcDbEntity
  8
DV3_Default
  6
Continuous
 62
     7
 48
25.4
100
AcDbText
 10
89.5284779529
 20
149.9838237146
 30
0.0
 40
3.6
  1
Specifications
  7
SEACAD_arial_ttf
 11
89.5284779529
 21
153.5838237146
 31
0.0
100
AcDbText
 73
     3
  0
TEXT
  5
26D
330
250
100
AcDbEntity
  8
DV3_Default
  6
Continuous
 62
     7
 48
25.4
100
AcDbText
 10
39.5483245494
 20
122.9876133669
 30
0.0
 40
3.0
  1
THROUGH HOLE
  7
SEACAD_arial_ttf
 11
39.5483245494
 21
125.9876133669
 31
0.0
100
AcDbText
 73
     3
  0
TEXT
  5
26E
330
250
100
AcDbEntity
  8
DV3_Default
  6
Continuous
 62
     7
 48
25.4
100
AcDbText
 10
128.610805893
 20
123.1041574477
 30
0.0
 40
3.0
  1
63mm
  7
SEACAD_arial_ttf
 11
128.610805893
 21
126.1041574477
 31
0.0
100
AcDbText
 73
     3
  0
TEXT
  5
26F
330
250
100
AcDbEntity
  8
DV3_Default
  6
Continuous
 62
     7
 48
25.4
100
AcDbText
 10
39.3613472922
 20
115.7680156133
 30
0.0
 40
3.0
  1
MAX. GRIPPING RANGE
  7
SEACAD_arial_ttf
 11
39.3613472922
 21
118.7680156133
 31
0.0
100
AcDbText
 73
     3
  0
TEXT
  5
270
330
250
100
AcDbEntity
  8
DV3_Default
  6
Continuous
 62
     7
 48
25.4
100
AcDbText
 10
39.3563865947
 20
108.4031511663
 30
0.0
 40
3.0
  1
MIN. GRIPPING RANGE
  7
SEACAD_arial_ttf
 11
39.3563865947
 21
111.4031511663
 31
0.0
100
AcDbText
 73
     3
  0
TEXT
  5
271
330
250
100
AcDbEntity
  8
DV3_Default
  6
Continuous
 62
     7
 48
25.4
100
AcDbText
 10
39.4945652671
 20
101.2203032791
 30
0.0
 40
3.0
  1
JAW STROKE
  7
SEACAD_arial_ttf
 11
39.4945652671
 21
104.2203032791
 31
0.0
100
AcDbText
 73
     3
  0
TEXT
  5
272
330
250
100
AcDbEntity
  8
DV3_Default
  6
Continuous
 62
     7
 48
25.4
100
AcDbText
 10
39.3509779357
 20
94.3516417629
 30
0.0
 40
3.0
  1
PLUNGER STROKE
  7
SEACAD_arial_ttf
 11
39.3509779357
 21
97.3516417629
 31
0.0
100
AcDbText
 73
     3
  0
TEXT
  5
273
330
250
100
AcDbEntity
  8
DV3_Default
  6
Continuous
 62
     7
 48
25.4
100
AcDbText
 10
39.3539995391
 20
86.9695081679
 30
0.0
 40
3.0
  1
MAX. DRAW BAR PULL FORCE
  7
SEACAD_arial_ttf
 11
39.3539995391
 21
89.9695081679
 31
0.0
100
AcDbText
 73
     3
  0
TEXT
  5
274
330
250
100
AcDbEntity
  8
DV3_Default
  6
Continuous
 62
     7
 48
25.4
100
AcDbText
 10
39.369329593
 20
79.7605611039
 30
0.0
 40
3.0
  1
MAX. GRIPPING FORCE
  7
SEACAD_arial_ttf
 11
39.369329593
 21
82.7605611039
 31
0.0
100
AcDbText
 73
     3
  0
TEXT
  5
275
330
250
100
AcDbEntity
  8
DV3_Default
  6
Continuous
 62
     7
 48
25.4
100
AcDbText
 10
39.3613472922
 20
72.6994920703
 30
0.0
 40
3.0
  1
MAX. SPEED
  7
SEACAD_arial_ttf
 11
39.3613472922
 21
75.6994920703
 31
0.0
100
AcDbText
 73
     3
  0
TEXT
  5
276
330
250
100
AcDbEntity
  8
DV3_Default
  6
Continuous
 62
     7
 48
25.4
100
AcDbText
 10
39.3481695126
 20
58.257593988
 30
0.0
 40
3.0
  1
NET WEIGHT WITH SOFT TOP JAWS
  7
SEACAD_arial_ttf
 11
39.3481695126
 21
61.257593988
 31
0.0
100
AcDbText
 73
     3
  0
TEXT
  5
277
330
250
100
AcDbEntity
  8
DV3_Default
  6
Continuous
 62
     7
 48
25.4
100
AcDbText
 10
39.4019287948
 20
51.010617462
 30
0.0
 40
3.0
  1
MOMENT OF INERTIA
  7
SEACAD_arial_ttf
 11
39.4019287948
 21
54.010617462
 31
0.0
100
AcDbText
 73
     3
  0
TEXT
  5
278
330
250
100
AcDbEntity
  8
DV3_Default
  6
Continuous
 62
     7
 48
25.4
100
AcDbText
 10
39.3734209613
 20
43.9905994938
 30
0.0
 40
3.0
  1
MATCHING CYLINDER
  7
SEACAD_arial_ttf
 11
39.3734209613
 21
46.9905994938
 31
0.0
100
AcDbText
 73
     3
  0
TEXT
  5
279
330
250
100
AcDbEntity
  8
DV3_Default
  6
Continuous
 62
     7
 48
25.4
100
AcDbText
 10
39.4233020556
 20
36.5218598889
 30
0.0
 40
3.0
  1
MAX. PRESSURE
  7
SEACAD_arial_ttf
 11
39.4233020556
 21
39.5218598889
 31
0.0
100
AcDbText
 73
     3
  0
TEXT
  5
27A
330
250
100
AcDbEntity
  8
DV3_Default
  6
Continuous
 62
     7
 48
25.4
100
AcDbText
 10
39.3967333161
 20
29.5068026181
 30
0.0
 40
3.0
  1
MATCHING HARD TOP JAW
  7
SEACAD_arial_ttf
 11
39.3967333161
 21
32.5068026181
 31
0.0
100
AcDbText
 73
     3
  0
TEXT
  5
27B
330
250
100
AcDbEntity
  8
DV3_Default
  6
Continuous
 62
     7
 48
25.4
100
AcDbText
 10
39.4485535043
 20
22.3496757423
 30
0.0
 40
3.0
  1
MATCHING SOFT TOP JAW
  7
SEACAD_arial_ttf
 11
39.4485535043
 21
25.3496757423
 31
0.0
100
AcDbText
 73
     3
  0
LINE
  5
27C
330
250
100
AcDbEntity
  8
DV3_Default
  6
Continuous
 62
     7
 48
25.4
100
AcDbLine
 10
37.0684941579
 20
20.0789201033
 30
0.0
 11
181.0684941579
 21
20.0789201033
 31
0.0
  0
LINE
  5
27D
330
250
100
AcDbEntity
  8
DV3_Default
  6
Continuous
 62
     7
 48
25.4
100
AcDbLine
 10
126.958791058
 20
135.2789201033
 30
0.0
 11
126.958791058
 21
20.0789201033
 31
0.0
  0
LINE
  5
27E
330
250
100
AcDbEntity
  8
DV3_Default
  6
Continuous
 62
     7
 48
25.4
100
AcDbLine
 10
37.0684941579
 20
135.2789201033
 30
0.0
 11
37.0684941579
 21
20.0789201033
 31
0.0
  0
LINE
  5
27F
330
250
100
AcDbEntity
  8
DV3_Default
  6
Continuous
 62
     7
 48
25.4
100
AcDbLine
 10
181.0684941579
 20
135.2789201033
 30
0.0
 11
181.0684941579
 21
20.0789201033
 31
0.0
  0
TEXT
  5
280
330
250
100
AcDbEntity
  8
DV3_Default
  6
Continuous
 62
     7
 48
25.4
100
AcDbText
 10
128.6214506411
 20
115.6085442446
 30
0.0
 40
3.0
  1
304mm
  7
SEACAD_arial_ttf
 11
128.6214506411
 21
118.6085442446
 31
0.0
100
AcDbText
 73
     3
  0
TEXT
  5
281
330
250
100
AcDbEntity
  8
DV3_Default
  6
Continuous
 62
     7
 48
25.4
100
AcDbText
 10
128.7416368984
 20
108.5189687943
 30
0.0
 40
3.0
  1
43mm
  7
SEACAD_arial_ttf
 11
128.7416368984
 21
111.5189687943
 31
0.0
100
AcDbText
 73
     3
  0
TEXT
  5
282
330
250
100
AcDbEntity
  8
DV3_Default
  6
Continuous
 62
     7
 48
25.4
100
AcDbText
 10
128.6131046563
 20
101.3177954958
 30
0.0
 40
3.0
  1
35mm
  7
SEACAD_arial_ttf
 11
128.6131046563
 21
104.3177954958
 31
0.0
100
AcDbText
 73
     3
  0
TEXT
  5
283
330
250
100
AcDbEntity
  8
DV3_Default
  6
Continuous
 62
     7
 48
25.4
100
AcDbText
 10
128.686631278
 20
94.1133971685
 30
0.0
 40
3.0
  1
25mm
  7
SEACAD_arial_ttf
 11
128.686631278
 21
97.1133971685
 31
0.0
100
AcDbText
 73
     3
  0
TEXT
  5
284
330
250
100
AcDbEntity
  8
DV3_Default
  6
Continuous
 62
     7
 48
25.4
100
AcDbText
 10
128.6564206195
 20
87.0056209332
 30
0.0
 40
3.0
  1
69.3kN
  7
SEACAD_arial_ttf
 11
128.6564206195
 21
90.0056209332
 31
0.0
100
AcDbText
 73
     3
  0
TEXT
  5
285
330
250
100
AcDbEntity
  8
DV3_Default
  6
Continuous
 62
     7
 48
25.4
100
AcDbText
 10
128.6428584221
 20
79.5646774563
 30
0.0
 40
3.0
  1
80.4kN
  7
SEACAD_arial_ttf
 11
128.6428584221
 21
82.5646774563
 31
0.0
100
AcDbText
 73
     3
  0
TEXT
  5
286
330
250
100
AcDbEntity
  8
DV3_Default
  6
Continuous
 62
     7
 48
25.4
100
AcDbText
 10
128.6319169005
 20
72.4537687929
 30
0.0
 40
3.0
  1
2200min-
  7
SEACAD_arial_ttf
 11
128.6319169005
 21
75.4537687929
 31
0.0
100
AcDbText
 73
     3
  0
TEXT
  5
287
330
250
100
AcDbEntity
  8
DV3_Default
  6
Continuous
 62
     7
 48
25.4
100
AcDbText
 10
146.2406125527
 20
72.4537687929
 30
0.0
 40
2.7516666667
  1
¹
  7
SEACAD_arial_ttf
 11
146.2406125527
 21
75.2054354596
 31
0.0
100
AcDbText
 73
     3
  0
TEXT
  5
288
330
250
100
AcDbEntity
  8
DV3_Default
  6
Continuous
 62
     7
 48
25.4
100
AcDbText
 10
128.7212237346
 20
65.4713032663
 30
0.0
 40
3.0
  1
26.8kN
  7
SEACAD_arial_ttf
 11
128.7212237346
 21
68.4713032663
 31
0.0
100
AcDbText
 73
     3
  0
TEXT
  5
289
330
250
100
AcDbEntity
  8
DV3_Default
  6
Continuous
 62
     7
 48
25.4
100
AcDbText
 10
128.6199884208
 20
58.2377444953
 30
0.0
 40
3.0
  1
78kg
  7
SEACAD_arial_ttf
 11
128.6199884208
 21
61.2377444953
 31
0.0
100
AcDbText
 73
     3
  0
TEXT
  5
28A
330
250
100
AcDbEntity
  8
DV3_Default
  6
Continuous
 62
     7
 48
25.4
100
AcDbText
 10
128.601606273
 20
51.0048066682
 30
0.0
 40
3.0
  1
0.918kg.m
  7
SEACAD_arial_ttf
 11
128.601606273
 21
54.0048066682
 31
0.0
100
AcDbText
 73
     3
  0
TEXT
  5
28B
330
250
100
AcDbEntity
  8
DV3_Default
  6
Continuous
 62
     7
 48
25.4
100
AcDbText
 10
148.4276932295
 20
51.0048066682
 30
0.0
 40
2.7516666667
  1
²
  7
SEACAD_arial_ttf
 11
148.4276932295
 21
53.7564733349
 31
0.0
100
AcDbText
 73
     3
  0
TEXT
  5
28C
330
250
100
AcDbEntity
  8
DV3_Default
  6
Continuous
 62
     7
 48
25.4
100
AcDbText
 10
128.6385410605
 20
43.7512648726
 30
0.0
 40
3.0
  1
S2091
  7
SEACAD_arial_ttf
 11
128.6385410605
 21
46.7512648726
 31
0.0
100
AcDbText
 73
     3
  0
TEXT
  5
28D
330
250
100
AcDbEntity
  8
DV3_Default
  6
Continuous
 62
     7
 48
25.4
100
AcDbText
 10
128.6172791666
 20
36.4823129742
 30
0.0
 40
3.0
  1
3.22MPa
  7
SEACAD_arial_ttf
 11
128.6172791666
 21
39.4823129742
 31
0.0
100
AcDbText
 73
     3
  0
TEXT
  5
28E
330
250
100
AcDbEntity
  8
DV3_Default
  6
Continuous
 62
     7
 48
25.4
100
AcDbText
 10
128.4610704892
 20
29.4229858193
 30
0.0
 40
3.0
  1
HB12N1
  7
SEACAD_arial_ttf
 11
128.4610704892
 21
32.4229858193
 31
0.0
100
AcDbText
 73
     3
  0
LINE
  5
28F
330
250
100
AcDbEntity
  8
DV3_Default
  6
CENTER2
 62
     7
 48
25.4
100
AcDbLine
 10
199.4662062514
 20
135.8368512426
 30
0.0
 11
228.1481671933
 21
135.8368512426
 31
0.0
  0
LINE
  5
290
330
250
100
AcDbEntity
  8
DV3_Default
  6
Continuous
 62
     7
 48
25.4
100
AcDbLine
 10
219.890973917
 20
135.8368512426
 30
0.0
 11
219.890973917
 21
129.5368512426
 31
0.0
  0
LINE
  5
291
330
250
100
AcDbEntity
  8
DV3_Default
  6
Continuous
 62
     7
 48
25.4
100
AcDbLine
 10
219.890973917
 20
129.5368512426
 30
0.0
 11
210.140973917
 21
129.5368512426
 31
0.0
  0
LINE
  5
292
330
250
100
AcDbEntity
  8
DV3_Default
  6
Continuous
 62
     7
 48
25.4
100
AcDbLine
 10
210.140973917
 20
129.5368512426
 30
0.0
 11
210.140973917
 21
126.9868512426
 31
0.0
  0
LINE
  5
293
330
250
100
AcDbEntity
  8
DV3_Default
  6
Continuous
 62
     7
 48
25.4
100
AcDbLine
 10
216.740973917
 20
120.2368512426
 30
0.0
 11
205.340973917
 21
120.2368512426
 31
0.0
  0
LINE
  5
294
330
250
100
AcDbEntity
  8
DV3_Default
  6
Continuous
 62
     7
 48
25.4
100
AcDbLine
 10
218.540973917
 20
122.0368512426
 30
0.0
 11
218.540973917
 21
129.5368512426
 31
0.0
  0
LINE
  5
295
330
250
100
AcDbEntity
  8
DV3_Default
  6
Continuous
 62
     7
 48
25.4
100
AcDbLine
 10
219.890973917
 20
135.8368512426
 30
0.0
 11
219.890973917
 21
142.1368512426
 31
0.0
  0
LINE
  5
296
330
250
100
AcDbEntity
  8
DV3_Default
  6
Continuous
 62
     7
 48
25.4
100
AcDbLine
 10
219.890973917
 20
142.1368512426
 30
0.0
 11
210.140973917
 21
142.1368512426
 31
0.0
  0
LINE
  5
297
330
250
100
AcDbEntity
  8
DV3_Default
  6
Continuous
 62
     7
 48
25.4
100
AcDbLine
 10
210.140973917
 20
142.1368512426
 30
0.0
 11
210.140973917
 21
144.6868512426
 31
0.0
  0
LINE
  5
298
330
250
100
AcDbEntity
  8
DV3_Default
  6
Continuous
 62
     7
 48
25.4
100
AcDbLine
 10
216.740973917
 20
151.4368512426
 30
0.0
 11
205.340973917
 21
151.4368512426
 31
0.0
  0
LINE
  5
299
330
250
100
AcDbEntity
  8
DV3_Default
  6
Continuous
 62
     7
 48
25.4
100
AcDbLine
 10
218.540973917
 20
149.6368512426
 30
0.0
 11
218.540973917
 21
142.1368512426
 31
0.0
  0
LINE
  5
29A
330
250
100
AcDbEntity
  8
DV3_Default
  6
Continuous
 62
     7
 48
25.4
100
AcDbLine
 10
209.7167098483
 20
145.1111153113
 30
0.0
 11
204.6167098483
 21
145.1111153113
 31
0.0
  0
LINE
  5
29B
330
250
100
AcDbEntity
  8
DV3_Default
  6
Continuous
 62
     7
 48
25.4
100
AcDbLine
 10
202.8167098483
 20
143.3111153113
 30
0.0
 11
202.8167098483
 21
128.3625871738
 31
0.0
  0
LINE
  5
29C
330
250
100
AcDbEntity
  8
DV3_Default
  6
Continuous
 62
     7
 48
25.4
100
AcDbLine
 10
204.6167098483
 20
126.5625871738
 30
0.0
 11
209.7167098483
 21
126.5625871738
 31
0.0
  0
LINE
  5
29D
330
250
100
AcDbEntity
  8
DV3_Default
  6
Continuous
 62
     7
 48
25.4
100
AcDbLine
 10
210.140973917
 20
144.6868512426
 30
0.0
 11
205.040973917
 21
144.6868512426
 31
0.0
  0
LINE
  5
29E
330
250
100
AcDbEntity
  8
DV3_Default
  6
Continuous
 62
     7
 48
25.4
100
AcDbLine
 10
203.240973917
 20
142.8868512426
 30
0.0
 11
203.240973917
 21
128.7868512426
 31
0.0
  0
LINE
  5
29F
330
250
100
AcDbEntity
  8
DV3_Default
  6
Continuous
 62
     7
 48
25.4
100
AcDbLine
 10
205.040973917
 20
126.9868512426
 30
0.0
 11
210.140973917
 21
126.9868512426
 31
0.0
  0
LINE
  5
2A0
330
250
100
AcDbEntity
  8
DV3_Default
  6
Continuous
 62
     7
 48
25.4
100
AcDbLine
 10
209.7167098483
 20
126.5625871738
 30
0.0
 11
210.140973917
 21
126.9868512426
 31
0.0
  0
LINE
  5
2A1
330
250
100
AcDbEntity
  8
DV3_Default
  6
Continuous
 62
     7
 48
25.4
100
AcDbLine
 10
209.7167098483
 20
145.1111153113
 30
0.0
 11
210.140973917
 21
144.6868512426
 31
0.0
  0
LINE
  5
2A2
330
250
100
AcDbEntity
  8
DV3_Default
  6
Continuous
 62
     7
 48
25.4
100
AcDbLine
 10
205.040973917
 20
126.9868512426
 30
0.0
 11
203.240973917
 21
128.7868512426
 31
0.0
  0
LINE
  5
2A3
330
250
100
AcDbEntity
  8
DV3_Default
  6
Continuous
 62
     7
 48
25.4
100
AcDbLine
 10
204.6167098483
 20
126.5625871738
 30
0.0
 11
202.8167098483
 21
128.3625871738
 31
0.0
  0
LINE
  5
2A4
330
250
100
AcDbEntity
  8
DV3_Default
  6
Continuous
 62
     7
 48
25.4
100
AcDbLine
 10
205.040973917
 20
144.6868512426
 30
0.0
 11
203.240973917
 21
142.8868512426
 31
0.0
  0
LINE
  5
2A5
330
250
100
AcDbEntity
  8
DV3_Default
  6
Continuous
 62
     7
 48
25.4
100
AcDbLine
 10
204.6167098483
 20
145.1111153113
 30
0.0
 11
202.8167098483
 21
143.3111153113
 31
0.0
  0
LINE
  5
2A6
330
250
100
AcDbEntity
  8
DV3_Default
  6
Continuous
 62
     7
 48
25.4
100
AcDbLine
 10
218.540973917
 20
149.6368512426
 30
0.0
 11
216.740973917
 21
151.4368512426
 31
0.0
  0
LINE
  5
2A7
330
250
100
AcDbEntity
  8
DV3_Default
  6
Continuous
 62
     7
 48
25.4
100
AcDbLine
 10
216.740973917
 20
151.4368512426
 30
0.0
 11
216.740973917
 21
162.2368512426
 31
0.0
  0
LINE
  5
2A8
330
250
100
AcDbEntity
  8
DV3_Default
  6
Continuous
 62
     7
 48
25.4
100
AcDbLine
 10
218.540973917
 20
122.0368512426
 30
0.0
 11
216.740973917
 21
120.2368512426
 31
0.0
  0
LINE
  5
2A9
330
250
100
AcDbEntity
  8
DV3_Default
  6
Continuous
 62
     7
 48
25.4
100
AcDbLine
 10
216.740973917
 20
120.2368512426
 30
0.0
 11
216.740973917
 21
109.4368512426
 31
0.0
  0
LINE
  5
2AA
330
250
100
AcDbEntity
  8
DV3_Default
  6
Continuous
 62
     7
 48
25.4
100
AcDbLine
 10
407.1885324347
 20
135.2010551151
 30
0.0
 11
287.1885324347
 21
135.2010551151
 31
0.0
  0
LINE
  5
2AB
330
250
100
AcDbEntity
  8
DV3_Default
  6
Continuous
 62
     7
 48
25.4
100
AcDbLine
 10
407.1885324347
 20
135.2010551151
 30
0.0
 11
407.1885324347
 21
43.4010551151
 31
0.0
  0
LINE
  5
2AC
330
250
100
AcDbEntity
  8
DV3_Default
  6
Continuous
 62
     7
 48
25.4
100
AcDbLine
 10
407.1885324347
 20
43.4010551151
 30
0.0
 11
287.1885324347
 21
43.4010551151
 31
0.0
  0
LINE
  5
2AD
330
250
100
AcDbEntity
  8
DV3_Default
  6
Continuous
 62
     7
 48
25.4
100
AcDbLine
 10
287.1885324347
 20
43.4010551151
 30
0.0
 11
287.1885324347
 21
135.2010551151
 31
0.0
  0
TEXT
  5
2AE
330
250
100
AcDbEntity
  8
DV3_Default
  6
Continuous
 62
     7
 48
25.4
100
AcDbText
 10
285.7827971772
 20
38.5833706081
 30
0.0
 40
3.0
  1
0
  7
SEACAD_arial_ttf
 11
285.7827971772
 21
41.5833706081
 31
0.0
100
AcDbText
 73
     3
  0
TEXT
  5
2AF
330
250
100
AcDbEntity
  8
DV3_Default
  6
Continuous
 62
     7
 48
25.4
100
AcDbText
 10
322.7268633498
 20
38.7229883268
 30
0.0
 40
3.0
  1
1000
  7
SEACAD_arial_ttf
 11
322.7268633498
 21
41.7229883268
 31
0.0
100
AcDbText
 73
     3
  0
TEXT
  5
2B0
330
250
100
AcDbEntity
  8
DV3_Default
  6
Continuous
 62
     7
 48
25.4
100
AcDbText
 10
343.0028646785
 20
38.5949031993
 30
0.0
 40
3.0
  1
1500
  7
SEACAD_arial_ttf
 11
343.0028646785
 21
41.5949031993
 31
0.0
100
AcDbText
 73
     3
  0
TEXT
  5
2B1
330
250
100
AcDbEntity
  8
DV3_Default
  6
Continuous
 62
     7
 48
25.4
100
AcDbText
 10
382.5469725708
 20
38.6212303156
 30
0.0
 40
3.0
  1
2500
  7
SEACAD_arial_ttf
 11
382.5469725708
 21
41.6212303156
 31
0.0
100
AcDbText
 73
     3
  0
TEXT
  5
2B2
330
250
100
AcDbEntity
  8
DV3_Default
  6
Continuous
 62
     7
 48
25.4
100
AcDbText
 10
280.9897126928
 20
62.5485754938
 30
0.0
 40
3.0
  1
20
  7
SEACAD_arial_ttf
 11
280.9897126928
 21
65.5485754938
 31
0.0
100
AcDbText
 73
     3
  0
TEXT
  5
2B3
330
250
100
AcDbEntity
  8
DV3_Default
  6
Continuous
 62
     7
 48
25.4
100
AcDbText
 10
280.9293102175
 20
52.4840638106
 30
0.0
 40
3.0
  1
10
  7
SEACAD_arial_ttf
 11
280.9293102175
 21
55.4840638106
 31
0.0
100
AcDbText
 73
     3
  0
TEXT
  5
2B4
330
250
100
AcDbEntity
  8
DV3_Default
  6
Continuous
 62
     7
 48
25.4
100
AcDbText
 10
281.060408809
 20
72.6742639185
 30
0.0
 40
3.0
  1
30
  7
SEACAD_arial_ttf
 11
281.060408809
 21
75.6742639185
 31
0.0
100
AcDbText
 73
     3
  0
TEXT
  5
2B5
330
250
100
AcDbEntity
  8
DV3_Default
  6
Continuous
 62
     7
 48
25.4
100
AcDbText
 10
281.0185680068
 20
92.9141613076
 30
0.0
 40
3.0
  1
50
  7
SEACAD_arial_ttf
 11
281.0185680068
 21
95.9141613076
 31
0.0
100
AcDbText
 73
     3
  0
TEXT
  5
2B6
330
250
100
AcDbEntity
  8
DV3_Default
  6
Continuous
 62
     7
 48
25.4
100
AcDbText
 10
281.0232445037
 20
82.9118980922
 30
0.0
 40
3.0
  1
40
  7
SEACAD_arial_ttf
 11
281.0232445037
 21
85.9118980922
 31
0.0
100
AcDbText
 73
     3
  0
TEXT
  5
2B7
330
250
100
AcDbEntity
  8
DV3_Default
  6
Continuous
 62
     7
 48
25.4
100
AcDbText
 10
280.99476413
 20
103.2207510763
 30
0.0
 40
3.0
  1
60
  7
SEACAD_arial_ttf
 11
280.99476413
 21
106.2207510763
 31
0.0
100
AcDbText
 73
     3
  0
TEXT
  5
2B8
330
250
100
AcDbEntity
  8
DV3_Default
  6
Continuous
 62
     7
 48
25.4
100
AcDbText
 10
328.409265294
 20
126.1954565114
 30
0.0
 40
3.6
  1
Input Force
  7
SEACAD_arial_ttf
 11
328.409265294
 21
129.7954565114
 31
0.0
100
AcDbText
 73
     3
  0
TEXT
  5
2B9
330
250
100
AcDbEntity
  8
DV3_Default
  6
Continuous
 62
     7
 48
25.4
100
AcDbText
 10
328.0877143545
 20
115.2925477904
 30
0.0
 40
3.0
  1
69.3kN
  7
SEACAD_arial_ttf
 11
328.0877143545
 21
118.2925477904
 31
0.0
100
AcDbText
 73
     3
  0
TEXT
  5
2BA
330
250
100
AcDbEntity
  8
DV3_Default
  6
Continuous
 62
     7
 48
25.4
100
AcDbText
 10
328.1836172473
 20
103.1928115362
 30
0.0
 40
3.0
  1
60kN
  7
SEACAD_arial_ttf
 11
328.1836172473
 21
106.1928115362
 31
0.0
100
AcDbText
 73
     3
  0
TEXT
  5
2BB
330
250
100
AcDbEntity
  8
DV3_Default
  6
Continuous
 62
     7
 48
25.4
100
AcDbText
 10
328.1125940906
 20
85.6976344953
 30
0.0
 40
3.0
  1
45kN
  7
SEACAD_arial_ttf
 11
328.1125940906
 21
88.6976344953
 31
0.0
100
AcDbText
 73
     3
  0
TEXT
  5
2BC
330
250
100
AcDbEntity
  8
DV3_Default
  6
Continuous
 62
     7
 48
25.4
100
AcDbText
 10
328.0783521151
 20
74.6507999155
 30
0.0
 40
3.0
  1
35kN
  7
SEACAD_arial_ttf
 11
328.0783521151
 21
77.6507999155
 31
0.0
100
AcDbText
 73
     3
  0
TEXT
  5
2BD
330
250
100
AcDbEntity
  8
DV3_Default
  6
Continuous
 62
     7
 48
25.4
100
AcDbText
 10
327.9231344312
 20
55.2765810424
 30
0.0
 40
3.0
  1
20kN
  7
SEACAD_arial_ttf
 11
327.9231344312
 21
58.2765810424
 31
0.0
100
AcDbText
 73
     3
  0
LWPOLYLINE
  5
2BE
330
250
100
AcDbEntity
  8
DV3_Default
  6
Continuous
 62
     7
 48
25.4
100
AcDbPolyline
 90
        2
 70
     0
 43
0.0
 10
410.6968375906
 20
47.2755023584
 10
358.8663425971
 20
62.2586983731
  0
HATCH
  5
2BF
330
250
100
AcDbEntity
  8
DV3_Default
  6
Continuous
 62
     7
 48
25.4
100
AcDbHatch
 10
0.0
 20
0.0
 30
0.0
210
0.0
220
0.0
230
1.0
  2
SOLID
 70
     1
 71
     0
 91
        1
 92
        1
 93
        3
 72
     1
 10
362.4913625880411
 20
61.83534237975722
 11
358.8663425971367
 21
62.25869837310956
 72
     1
 10
358.8663425971367
 20
62.25869837310956
 11
362.1581109150131
 21
60.68254432829374
 72
     1
 10
362.1581109150131
 20
60.68254432829374
 11
362.4913625880411
 21
61.83534237975722
 97
        0
 75
     0
 76
     1
 98
        0
  0
LWPOLYLINE
  5
2C0
330
250
100
AcDbEntity
  8
DV3_Default
  6
Continuous
 62
     7
 48
25.4
370
    20
100
AcDbPolyline
 90
        4
 70
     1
 43
0.0
 10
362.491362588
 20
61.8353423798
 10
358.8663425971
 20
62.2586983731
 10
362.158110915
 20
60.6825443283
 10
362.491362588
 20
61.8353423798
  0
LINE
  5
2C1
330
250
100
AcDbEntity
  8
DV3_Default
  6
Continuous
 62
     7
 48
25.4
100
AcDbLine
 10
410.6968375906
 20
47.2755023584
 30
0.0
 11
456.0881419384
 21
47.2755023584
 31
0.0
  0
TEXT
  5
2C2
330
250
100
AcDbEntity
  8
DV3_Default
  6
Continuous
 62
     7
 48
25.4
100
AcDbText
 10
410.6968375906
 20
48.1755023584
 30
0.0
 40
3.6
  1
Gripping Force Limit
  7
SEACAD_arial_ttf
 11
410.6968375906
 21
51.7755023584
 31
0.0
100
AcDbText
 73
     3
  0
LINE
  5
2C3
330
250
100
AcDbEntity
  8
DV3_Default
  6
Continuous
 62
     7
 48
25.4
100
AcDbLine
 10
307.1685324347
 20
43.4010551151
 30
0.0
 11
307.1685324347
 21
135.2010551151
 31
0.0
  0
LINE
  5
2C4
330
250
100
AcDbEntity
  8
DV3_Default
  6
Continuous
 62
     7
 48
25.4
100
AcDbLine
 10
327.1485324347
 20
135.2010551151
 30
0.0
 11
327.1485324347
 21
43.4010551151
 31
0.0
  0
LINE
  5
2C5
330
250
100
AcDbEntity
  8
DV3_Default
  6
Continuous
 62
     7
 48
25.4
100
AcDbLine
 10
347.1285324347
 20
43.4010551151
 30
0.0
 11
347.1285324347
 21
135.2010551151
 31
0.0
  0
LINE
  5
2C6
330
250
100
AcDbEntity
  8
DV3_Default
  6
Continuous
 62
     7
 48
25.4
100
AcDbLine
 10
367.1685324347
 20
135.2010551151
 30
0.0
 11
367.1685324347
 21
43.4010551151
 31
0.0
  0
LINE
  5
2C7
330
250
100
AcDbEntity
  8
DV3_Default
  6
Continuous
 62
     7
 48
25.4
100
AcDbLine
 10
387.1485324347
 20
43.4010551151
 30
0.0
 11
387.1485324347
 21
135.2010551151
 31
0.0
  0
TEXT
  5
2C8
330
250
100
AcDbEntity
  8
DV3_Default
  6
Continuous
 62
     7
 48
25.4
100
AcDbText
 10
303.6877407826
 20
38.7179965445
 30
0.0
 40
3.0
  1
500
  7
SEACAD_arial_ttf
 11
303.6877407826
 21
41.7179965445
 31
0.0
100
AcDbText
 73
     3
  0
TEXT
  5
2C9
330
250
100
AcDbEntity
  8
DV3_Default
  6
Continuous
 62
     7
 48
25.4
100
AcDbText
 10
362.749693331
 20
38.6867336156
 30
0.0
 40
3.0
  1
2000
  7
SEACAD_arial_ttf
 11
362.749693331
 21
41.6867336156
 31
0.0
100
AcDbText
 73
     3
  0
TEXT
  5
2CA
330
250
100
AcDbEntity
  8
DV3_Default
  6
Continuous
 62
     7
 48
25.4
100
AcDbText
 10
402.4105905514
 20
38.6212303156
 30
0.0
 40
3.0
  1
3000
  7
SEACAD_arial_ttf
 11
402.4105905514
 21
41.6212303156
 31
0.0
100
AcDbText
 73
     3
  0
TEXT
  5
2CB
330
250
100
AcDbEntity
  8
DV3_Default
  6
Continuous
 62
     7
 48
25.4
100
AcDbText
 10
281.0609549082
 20
113.4985392371
 30
0.0
 40
3.0
  1
70
  7
SEACAD_arial_ttf
 11
281.0609549082
 21
116.4985392371
 31
0.0
100
AcDbText
 73
     3
  0
LINE
  5
2CC
330
250
100
AcDbEntity
  8
DV3_Default
  6
Continuous
 62
     7
 48
25.4
100
AcDbLine
 10
287.1885324347
 20
53.6010551151
 30
0.0
 11
407.1885324347
 21
53.6010551151
 31
0.0
  0
LINE
  5
2CD
330
250
100
AcDbEntity
  8
DV3_Default
  6
Continuous
 62
     7
 48
25.4
100
AcDbLine
 10
407.1885324347
 20
63.8010551151
 30
0.0
 11
287.1885324347
 21
63.8010551151
 31
0.0
  0
LINE
  5
2CE
330
250
100
AcDbEntity
  8
DV3_Default
  6
Continuous
 62
     7
 48
25.4
100
AcDbLine
 10
287.1885324347
 20
74.0010551151
 30
0.0
 11
407.1885324347
 21
74.0010551151
 31
0.0
  0
LINE
  5
2CF
330
250
100
AcDbEntity
  8
DV3_Default
  6
Continuous
 62
     7
 48
25.4
100
AcDbLine
 10
407.1885324347
 20
84.2010551151
 30
0.0
 11
287.1885324347
 21
84.2010551151
 31
0.0
  0
LINE
  5
2D0
330
250
100
AcDbEntity
  8
DV3_Default
  6
Continuous
 62
     7
 48
25.4
100
AcDbLine
 10
287.1885324347
 20
94.4010551151
 30
0.0
 11
407.1885324347
 21
94.4010551151
 31
0.0
  0
LINE
  5
2D1
330
250
100
AcDbEntity
  8
DV3_Default
  6
Continuous
 62
     7
 48
25.4
100
AcDbLine
 10
407.1885324347
 20
104.6010551151
 30
0.0
 11
287.1885324347
 21
104.6010551151
 31
0.0
  0
LINE
  5
2D2
330
250
100
AcDbEntity
  8
DV3_Default
  6
Continuous
 62
     7
 48
25.4
100
AcDbLine
 10
287.1885324347
 20
114.8010551151
 30
0.0
 11
407.1885324347
 21
114.8010551151
 31
0.0
  0
LINE
  5
2D3
330
250
100
AcDbEntity
  8
DV3_Default
  6
Continuous
 62
     7
 48
25.4
100
AcDbLine
 10
407.1885324347
 20
125.0010551151
 30
0.0
 11
287.1885324347
 21
125.0010551151
 31
0.0
  0
TEXT
  5
2D4
330
250
100
AcDbEntity
  8
DV3_Default
  6
Continuous
 62
     7
 48
25.4
100
AcDbText
 10
280.99476413
 20
123.4933467461
 30
0.0
 40
3.0
  1
80
  7
SEACAD_arial_ttf
 11
280.99476413
 21
126.4933467461
 31
0.0
100
AcDbText
 73
     3
  0
TEXT
  5
2D5
330
250
100
AcDbEntity
  8
DV3_Default
  6
Continuous
 62
     7
 48
25.4
100
AcDbText
 10
281.0609549082
 20
133.6205358116
 30
0.0
 40
3.0
  1
90
  7
SEACAD_arial_ttf
 11
281.0609549082
 21
136.6205358116
 31
0.0
100
AcDbText
 73
     3
  0
ARC
  5
2D6
330
250
100
AcDbEntity
  8
DV3_Default
  6
Continuous
 62
     7
 48
25.4
100
AcDbCircle
 10
292.4540094205
 20
6.4669074127
 30
0.0
 40
59.74879691336762
100
AcDbArc
 50
47.0651968173
 51
95.0558588586
  0
ARC
  5
2D7
330
250
100
AcDbEntity
  8
DV3_Default
  6
Continuous
 62
     7
 48
25.4
100
AcDbCircle
 10
229.678144443
 20
304.5167482614
 30
0.0
 40
274.5515494001107
100
AcDbArc
 50
292.1409410706
 51
301.437658246
  0
ARC
  5
2D8
330
250
100
AcDbEntity
  8
DV3_Default
  6
Continuous
 62
     7
 48
25.4
100
AcDbCircle
 10
281.5559066156
 20
21.7427895102
 30
0.0
 40
103.4117782912501
100
AcDbArc
 50
27.9845917371
 51
86.8776721523
  0
ARC
  5
2D9
330
250
100
AcDbEntity
  8
DV3_Default
  6
Continuous
 62
     7
 48
25.4
100
AcDbCircle
 10
281.7168135999
 20
8.3123415545
 30
0.0
 40
105.6136920990303
100
AcDbArc
 50
34.3429647457
 51
87.0302447613
  0
ARC
  5
2DA
330
250
100
AcDbEntity
  8
DV3_Default
  6
Continuous
 62
     7
 48
25.4
100
AcDbCircle
 10
284.6231510855
 20
1.4780433072
 30
0.0
 40
94.63538279651868
100
AcDbArc
 50
39.4663006278
 51
88.4466324568
  0
ARC
  5
2DB
330
250
100
AcDbEntity
  8
DV3_Default
  6
Continuous
 62
     7
 48
25.4
100
AcDbCircle
 10
287.1885324347
 20
-1.7009227691
 30
0.0
 40
85.90197788425093
100
AcDbArc
 50
43.5388074129
 51
90.0
  0
ENDBLK
  5
2DD
330
250
100
AcDbEntity
  8
0
100
AcDbBlockEnd
  0
BLOCK
  5
2E9
330
2DE
100
AcDbEntity
  8
0
100
AcDbBlockBegin
  2
GDimGGroup
 70
     0
 71
     0
 10
0.0
 20
0.0
 30
0.0
  3
GDimGGroup
  1

  0
HATCH
  5
2E0
330
2DE
100
AcDbEntity
  8
Default
  6
Continuous
 62
     7
 48
25.4
100
AcDbHatch
 10
0.0
 20
0.0
 30
0.0
210
0.0
220
0.0
230
1.0
  2
SOLID
 70
     1
 71
     0
 91
        1
 92
        1
 93
        3
 72
     1
 10
238.9775817724263
 20
133.5368514325467
 11
237.6442483757631
 21
133.5368514325467
 72
     1
 10
237.6442483757631
 20
133.5368514325467
 11
238.3109150740947
 21
129.5368512425569
 72
     1
 10
238.3109150740947
 20
129.5368512425569
 11
238.9775817724263
 21
133.5368514325467
 97
        0
 75
     0
 76
     1
 98
        0
  0
LWPOLYLINE
  5
2E1
330
2DE
100
AcDbEntity
  8
Default
  6
Continuous
 62
     7
 48
25.4
370
    20
100
AcDbPolyline
 90
        4
 70
     1
 43
0.0
 10
238.9775817724
 20
133.5368514325
 10
238.3109150741
 20
129.5368512426
 10
237.6442483758
 20
133.5368514325
 10
238.9775817724
 20
133.5368514325
  0
HATCH
  5
2E2
330
2DE
100
AcDbEntity
  8
Default
  6
Continuous
 62
     7
 48
25.4
100
AcDbHatch
 10
0.0
 20
0.0
 30
0.0
210
0.0
220
0.0
230
1.0
  2
SOLID
 70
     1
 71
     0
 91
        1
 92
        1
 93
        3
 72
     1
 10
238.9775817724263
 20
138.1368510689583
 11
238.3109150740947
 21
142.1368512589481
 72
     1
 10
238.3109150740947
 20
142.1368512589481
 11
237.6442483757631
 21
138.1368510689583
 72
     1
 10
237.6442483757631
 20
138.1368510689583
 11
238.9775817724263
 21
138.1368510689583
 97
        0
 75
     0
 76
     1
 98
        0
  0
LWPOLYLINE
  5
2E3
330
2DE
100
AcDbEntity
  8
Default
  6
Continuous
 62
     7
 48
25.4
370
    20
100
AcDbPolyline
 90
        4
 70
     1
 43
0.0
 10
238.9775817724
 20
138.136851069
 10
238.3109150741
 20
142.1368512589
 10
237.6442483758
 20
138.136851069
 10
238.9775817724
 20
138.136851069
  0
LINE
  5
2E4
330
2DE
100
AcDbEntity
  8
Default
  6
Continuous
 62
     7
 48
25.4
100
AcDbLine
 10
219.8909741182
 20
129.5368512426
 30
0.0
 11
240.3109151691
 21
129.5368512426
 31
0.0
  0
LINE
  5
2E5
330
2DE
100
AcDbEntity
  8
Default
  6
Continuous
 62
     7
 48
25.4
100
AcDbLine
 10
219.8909741182
 20
142.1368512426
 30
0.0
 11
240.3109151691
 21
142.1368512426
 31
0.0
  0
LINE
  5
2E6
330
2DE
100
AcDbEntity
  8
Default
  6
Continuous
 62
     7
 48
25.4
100
AcDbLine
 10
238.3109150741
 20
93.0670489822
 30
0.0
 11
238.3109150741
 21
142.1368512589
 31
0.0
  0
TEXT
  5
2E7
330
2DE
100
AcDbEntity
  8
Default
  6
Continuous
 62
     7
 48
25.4
100
AcDbText
 10
237.3109150741
 20
94.4670481212
 30
0.0
 40
4.0
  1
21
 50
90.0
  7
SEACAD_arial_ttf
 11
233.3109150741
 21
94.4670481212
 31
0.0
100
AcDbText
 73
     3
  0
TEXT
  5
2E8
330
2DE
100
AcDbEntity
  8
Default
  6
Continuous
 62
     7
 48
25.4
100
AcDbText
 10
237.3109150741
 20
103.1279176864
 30
0.0
 40
4.0
  1
H8/h8
 50
90.0
  7
SEACAD_arial_ttf
 11
233.3109150741
 21
103.1279176864
 31
0.0
100
AcDbText
 73
     3
  0
ENDBLK
  5
2EA
330
2DE
100
AcDbEntity
  8
0
100
AcDbBlockEnd
  0
BLOCK
  5
2F5
330
2EB
100
AcDbEntity
  8
0
100
AcDbBlockBegin
  2
GDimGGroup1
 70
     0
 71
     0
 10
0.0
 20
0.0
 30
0.0
  3
GDimGGroup1
  1

  0
HATCH
  5
2ED
330
2EB
100
AcDbEntity
  8
Default
  6
Continuous
 62
     7
 48
25.4
100
AcDbHatch
 10
0.0
 20
0.0
 30
0.0
210
0.0
220
0.0
230
1.0
  2
SOLID
 70
     1
 71
     0
 91
        1
 92
        1
 93
        3
 72
     1
 10
254.0319150241411
 20
124.2368514325466
 11
252.6985816274778
 21
124.2368514325466
 72
     1
 10
252.6985816274778
 20
124.2368514325466
 11
253.3652483258094
 21
120.2368512425568
 72
     1
 10
253.3652483258094
 20
120.2368512425568
 11
254.0319150241411
 21
124.2368514325466
 97
        0
 75
     0
 76
     1
 98
        0
  0
LWPOLYLINE
  5
2EE
330
2EB
100
AcDbEntity
  8
Default
  6
Continuous
 62
     7
 48
25.4
370
    20
100
AcDbPolyline
 90
        4
 70
     1
 43
0.0
 10
254.0319150241
 20
124.2368514325
 10
253.3652483258
 20
120.2368512426
 10
252.6985816275
 20
124.2368514325
 10
254.0319150241
 20
124.2368514325
  0
HATCH
  5
2EF
330
2EB
100
AcDbEntity
  8
Default
  6
Continuous
 62
     7
 48
25.4
100
AcDbHatch
 10
0.0
 20
0.0
 30
0.0
210
0.0
220
0.0
230
1.0
  2
SOLID
 70
     1
 71
     0
 91
        1
 92
        1
 93
        3
 72
     1
 10
254.0319150241411
 20
147.4368502061811
 11
253.3652483258094
 21
151.4368503961709
 72
     1
 10
253.3652483258094
 20
151.4368503961709
 11
252.6985816274778
 21
147.4368502061811
 72
     1
 10
252.6985816274778
 20
147.4368502061811
 11
254.0319150241411
 21
147.4368502061811
 97
        0
 75
     0
 76
     1
 98
        0
  0
LWPOLYLINE
  5
2F0
330
2EB
100
AcDbEntity
  8
Default
  6
Continuous
 62
     7
 48
25.4
370
    20
100
AcDbPolyline
 90
        4
 70
     1
 43
0.0
 10
254.0319150241
 20
147.4368502062
 10
253.3652483258
 20
151.4368503962
 10
252.6985816275
 20
147.4368502062
 10
254.0319150241
 20
147.4368502062
  0
LINE
  5
2F1
330
2EB
100
AcDbEntity
  8
Default
  6
Continuous
 62
     7
 48
25.4
100
AcDbLine
 10
216.7409741092
 20
120.2368512426
 30
0.0
 11
255.3652484208
 21
120.2368512426
 31
0.0
  0
LINE
  5
2F2
330
2EB
100
AcDbEntity
  8
Default
  6
Continuous
 62
     7
 48
25.4
100
AcDbLine
 10
216.7409741092
 20
151.4368512426
 30
0.0
 11
255.3652484208
 21
151.4368512426
 31
0.0
  0
LINE
  5
2F3
330
2EB
100
AcDbEntity
  8
Default
  6
Continuous
 62
     7
 48
25.4
100
AcDbLine
 10
253.3652483258
 20
120.2368512426
 30
0.0
 11
253.3652483258
 21
151.4368503962
 31
0.0
  0
TEXT
  5
2F4
330
2EB
100
AcDbEntity
  8
Default
  6
Continuous
 62
     7
 48
25.4
100
AcDbText
 10
252.3652483258
 20
132.7064160368
 30
0.0
 40
4.0
  1
52
 50
90.0
  7
SEACAD_arial_ttf
 11
248.3652483258
 21
132.7064160368
 31
0.0
100
AcDbText
 73
     3
  0
ENDBLK
  5
2F6
330
2EB
100
AcDbEntity
  8
0
100
AcDbBlockEnd
  0
BLOCK
  5
301
330
2F7
100
AcDbEntity
  8
0
100
AcDbBlockBegin
  2
GDimGGroup2
 70
     0
 71
     0
 10
0.0
 20
0.0
 30
0.0
  3
GDimGGroup2
  1

  0
HATCH
  5
2F9
330
2F7
100
AcDbEntity
  8
Default
  6
Continuous
 62
     7
 48
25.4
100
AcDbHatch
 10
0.0
 20
0.0
 30
0.0
210
0.0
220
0.0
230
1.0
  2
SOLID
 70
     1
 71
     0
 91
        1
 92
        1
 93
        3
 72
     1
 10
308.3507331552414
 20
314.1791833434887
 11
307.0173997585781
 21
314.1791833434887
 72
     1
 10
307.0173997585781
 20
314.1791833434887
 11
307.6840664569097
 21
310.1791831534989
 72
     1
 10
307.6840664569097
 20
310.1791831534989
 11
308.3507331552414
 21
314.1791833434887
 97
        0
 75
     0
 76
     1
 98
        0
  0
LWPOLYLINE
  5
2FA
330
2F7
100
AcDbEntity
  8
Default
  6
Continuous
 62
     7
 48
25.4
370
    20
100
AcDbPolyline
 90
        4
 70
     1
 43
0.0
 10
308.3507331552
 20
314.1791833435
 10
307.6840664569
 20
310.1791831535
 10
307.0173997586
 20
314.1791833435
 10
308.3507331552
 20
314.1791833435
  0
HATCH
  5
2FB
330
2F7
100
AcDbEntity
  8
Default
  6
Continuous
 62
     7
 48
25.4
100
AcDbHatch
 10
0.0
 20
0.0
 30
0.0
210
0.0
220
0.0
230
1.0
  2
SOLID
 70
     1
 71
     0
 91
        1
 92
        1
 93
        3
 72
     1
 10
308.3507331552414
 20
372.7791853119321
 11
307.6840664569097
 21
376.7791855019219
 72
     1
 10
307.6840664569097
 20
376.7791855019219
 11
307.0173997585781
 21
372.7791853119321
 72
     1
 10
307.0173997585781
 20
372.7791853119321
 11
308.3507331552414
 21
372.7791853119321
 97
        0
 75
     0
 76
     1
 98
        0
  0
LWPOLYLINE
  5
2FC
330
2F7
100
AcDbEntity
  8
Default
  6
Continuous
 62
     7
 48
25.4
370
    20
100
AcDbPolyline
 90
        4
 70
     1
 43
0.0
 10
308.3507331552
 20
372.7791853119
 10
307.6840664569
 20
376.7791855019
 10
307.0173997586
 20
372.7791853119
 10
308.3507331552
 20
372.7791853119
  0
LINE
  5
2FD
330
2F7
100
AcDbEntity
  8
Default
  6
Continuous
 62
     7
 48
25.4
100
AcDbLine
 10
247.8204506758
 20
310.1791831535
 30
0.0
 11
309.6840665519
 21
310.1791831535
 31
0.0
  0
LINE
  5
2FE
330
2F7
100
AcDbEntity
  8
Default
  6
Continuous
 62
     7
 48
25.4
100
AcDbLine
 10
247.8204506758
 20
376.7791831535
 30
0.0
 11
309.6840665519
 21
376.7791831535
 31
0.0
  0
LINE
  5
2FF
330
2F7
100
AcDbEntity
  8
Default
  6
Continuous
 62
     7
 48
25.4
100
AcDbLine
 10
307.6840664569
 20
310.1791831535
 30
0.0
 11
307.6840664569
 21
376.7791855019
 31
0.0
  0
TEXT
  5
300
330
2F7
100
AcDbEntity
  8
Default
  6
Continuous
 62
     7
 48
25.4
100
AcDbText
 10
306.6840664569
 20
338.7835321538
 30
0.0
 40
4.0
  1
111
 50
90.0
  7
SEACAD_arial_ttf
 11
302.6840664569
 21
338.7835321538
 31
0.0
100
AcDbText
 73
     3
  0
ENDBLK
  5
302
330
2F7
100
AcDbEntity
  8
0
100
AcDbBlockEnd
  0
BLOCK
  5
30D
330
303
100
AcDbEntity
  8
0
100
AcDbBlockBegin
  2
GDimGGroup3
 70
     0
 71
     0
 10
0.0
 20
0.0
 30
0.0
  3
GDimGGroup3
  1

  0
HATCH
  5
305
330
303
100
AcDbEntity
  8
Default
  6
Continuous
 62
     7
 48
25.4
100
AcDbHatch
 10
0.0
 20
0.0
 30
0.0
210
0.0
220
0.0
230
1.0
  2
SOLID
 70
     1
 71
     0
 91
        1
 92
        1
 93
        3
 72
     1
 10
422.751326922655
 20
398.2463897812114
 11
418.7513267326652
 21
397.5797230828797
 72
     1
 10
418.7513267326652
 20
397.5797230828797
 11
422.751326922655
 21
396.913056384548
 72
     1
 10
422.751326922655
 20
396.913056384548
 11
422.751326922655
 21
398.2463897812114
 97
        0
 75
     0
 76
     1
 98
        0
  0
LWPOLYLINE
  5
306
330
303
100
AcDbEntity
  8
Default
  6
Continuous
 62
     7
 48
25.4
370
    20
100
AcDbPolyline
 90
        4
 70
     1
 43
0.0
 10
422.7513269227
 20
398.2463897812
 10
418.7513267327
 20
397.5797230829
 10
422.7513269227
 20
396.9130563845
 10
422.7513269227
 20
398.2463897812
  0
HATCH
  5
307
330
303
100
AcDbEntity
  8
Default
  6
Continuous
 62
     7
 48
25.4
100
AcDbHatch
 10
0.0
 20
0.0
 30
0.0
210
0.0
220
0.0
230
1.0
  2
SOLID
 70
     1
 71
     0
 91
        1
 92
        1
 93
        3
 72
     1
 10
444.7513258721231
 20
398.2463897812114
 11
444.7513258721231
 21
396.913056384548
 72
     1
 10
444.7513258721231
 20
396.913056384548
 11
448.7513260621129
 21
397.5797230828797
 72
     1
 10
448.7513260621129
 20
397.5797230828797
 11
444.7513258721231
 21
398.2463897812114
 97
        0
 75
     0
 76
     1
 98
        0
  0
LWPOLYLINE
  5
308
330
303
100
AcDbEntity
  8
Default
  6
Continuous
 62
     7
 48
25.4
370
    20
100
AcDbPolyline
 90
        4
 70
     1
 43
0.0
 10
444.7513258721
 20
398.2463897812
 10
448.7513260621
 20
397.5797230829
 10
444.7513258721
 20
396.9130563845
 10
444.7513258721
 20
398.2463897812
  0
LINE
  5
309
330
303
100
AcDbEntity
  8
Default
  6
Continuous
 62
     7
 48
25.4
100
AcDbLine
 10
418.7513267327
 20
371.3460742016
 30
0.0
 11
418.7513267327
 21
399.5797231779
 31
0.0
  0
LINE
  5
30A
330
303
100
AcDbEntity
  8
Default
  6
Continuous
 62
     7
 48
25.4
100
AcDbLine
 10
448.7513267327
 20
371.3460742016
 30
0.0
 11
448.7513267327
 21
399.5797231779
 31
0.0
  0
LINE
  5
30B
330
303
100
AcDbEntity
  8
Default
  6
Continuous
 62
     7
 48
25.4
100
AcDbLine
 10
418.7513267327
 20
397.5797230829
 30
0.0
 11
448.7513260621
 21
397.5797230829
 31
0.0
  0
TEXT
  5
30C
330
303
100
AcDbEntity
  8
Default
  6
Continuous
 62
     7
 48
25.4
100
AcDbText
 10
430.6208916148
 20
398.5797230829
 30
0.0
 40
4.0
  1
50
  7
SEACAD_arial_ttf
 11
430.6208916148
 21
402.5797230829
 31
0.0
100
AcDbText
 73
     3
  0
ENDBLK
  5
30E
330
303
100
AcDbEntity
  8
0
100
AcDbBlockEnd
  0
BLOCK
  5
319
330
30F
100
AcDbEntity
  8
0
100
AcDbBlockBegin
  2
GDimGGroup4
 70
     0
 71
     0
 10
0.0
 20
0.0
 30
0.0
  3
GDimGGroup4
  1

  0
HATCH
  5
311
330
30F
100
AcDbEntity
  8
Default
  6
Continuous
 62
     7
 48
25.4
100
AcDbHatch
 10
0.0
 20
0.0
 30
0.0
210
0.0
220
0.0
230
1.0
  2
SOLID
 70
     1
 71
     0
 91
        1
 92
        1
 93
        3
 72
     1
 10
222.5409741069819
 20
163.4153542178369
 11
218.5409739169921
 21
162.7486875195053
 72
     1
 10
218.5409739169921
 20
162.7486875195053
 11
222.5409741069819
 21
162.0820208211736
 72
     1
 10
222.5409741069819
 20
162.0820208211736
 11
222.5409741069819
 21
163.4153542178369
 97
        0
 75
     0
 76
     1
 98
        0
  0
LWPOLYLINE
  5
312
330
30F
100
AcDbEntity
  8
Default
  6
Continuous
 62
     7
 48
25.4
370
    20
100
AcDbPolyline
 90
        4
 70
     1
 43
0.0
 10
222.540974107
 20
163.4153542178
 10
218.540973917
 20
162.7486875195
 10
222.540974107
 20
162.0820208212
 10
222.540974107
 20
163.4153542178
  0
HATCH
  5
313
330
30F
100
AcDbEntity
  8
Default
  6
Continuous
 62
     7
 48
25.4
100
AcDbHatch
 10
0.0
 20
0.0
 30
0.0
210
0.0
220
0.0
230
1.0
  2
SOLID
 70
     1
 71
     0
 91
        1
 92
        1
 93
        3
 72
     1
 10
212.7409737270023
 20
163.4153542178369
 11
212.7409737270023
 21
162.0820208211736
 72
     1
 10
212.7409737270023
 20
162.0820208211736
 11
216.7409739169921
 21
162.7486875195053
 72
     1
 10
216.7409739169921
 20
162.7486875195053
 11
212.7409737270023
 21
163.4153542178369
 97
        0
 75
     0
 76
     1
 98
        0
  0
LWPOLYLINE
  5
314
330
30F
100
AcDbEntity
  8
Default
  6
Continuous
 62
     7
 48
25.4
370
    20
100
AcDbPolyline
 90
        4
 70
     1
 43
0.0
 10
212.740973727
 20
163.4153542178
 10
216.740973917
 20
162.7486875195
 10
212.740973727
 20
162.0820208212
 10
212.740973727
 20
163.4153542178
  0
LINE
  5
315
330
30F
100
AcDbEntity
  8
Default
  6
Continuous
 62
     7
 48
25.4
100
AcDbLine
 10
218.540973917
 20
149.6368512426
 30
0.0
 11
218.540973917
 21
164.7486876145
 31
0.0
  0
LINE
  5
316
330
30F
100
AcDbEntity
  8
Default
  6
Continuous
 62
     7
 48
25.4
100
AcDbLine
 10
216.740973917
 20
162.2368512426
 30
0.0
 11
216.740973917
 21
164.7486876145
 31
0.0
  0
LINE
  5
317
330
30F
100
AcDbEntity
  8
Default
  6
Continuous
 62
     7
 48
25.4
100
AcDbLine
 10
226.540974297
 20
162.7486875195
 30
0.0
 11
204.7130623389
 21
162.7486875195
 31
0.0
  0
TEXT
  5
318
330
30F
100
AcDbEntity
  8
Default
  6
Continuous
 62
     7
 48
25.4
100
AcDbText
 10
206.1130624687
 20
163.7486875195
 30
0.0
 40
4.0
  1
3
  7
SEACAD_arial_ttf
 11
206.1130624687
 21
167.7486875195
 31
0.0
100
AcDbText
 73
     3
  0
ENDBLK
  5
31A
330
30F
100
AcDbEntity
  8
0
100
AcDbBlockEnd
  0
BLOCK
  5
325
330
31B
100
AcDbEntity
  8
0
100
AcDbBlockBegin
  2
GDimGGroup5
 70
     0
 71
     0
 10
0.0
 20
0.0
 30
0.0
  3
GDimGGroup5
  1

  0
HATCH
  5
31D
330
31B
100
AcDbEntity
  8
Default
  6
Continuous
 62
     7
 48
25.4
100
AcDbHatch
 10
0.0
 20
0.0
 30
0.0
210
0.0
220
0.0
230
1.0
  2
SOLID
 70
     1
 71
     0
 91
        1
 92
        1
 93
        3
 72
     1
 10
214.5409737270023
 20
163.4153542178369
 11
214.5409737270023
 21
162.0820208211736
 72
     1
 10
214.5409737270023
 20
162.0820208211736
 11
218.5409739169921
 21
162.7486875195053
 72
     1
 10
218.5409739169921
 20
162.7486875195053
 11
214.5409737270023
 21
163.4153542178369
 97
        0
 75
     0
 76
     1
 98
        0
  0
LWPOLYLINE
  5
31E
330
31B
100
AcDbEntity
  8
Default
  6
Continuous
 62
     7
 48
25.4
370
    20
100
AcDbPolyline
 90
        4
 70
     1
 43
0.0
 10
214.540973727
 20
163.4153542178
 10
218.540973917
 20
162.7486875195
 10
214.540973727
 20
162.0820208212
 10
214.540973727
 20
163.4153542178
  0
HATCH
  5
31F
330
31B
100
AcDbEntity
  8
Default
  6
Continuous
 62
     7
 48
25.4
100
AcDbHatch
 10
0.0
 20
0.0
 30
0.0
210
0.0
220
0.0
230
1.0
  2
SOLID
 70
     1
 71
     0
 91
        1
 92
        1
 93
        3
 72
     1
 10
223.8909741069819
 20
163.4153542178369
 11
219.8909739169921
 21
162.7486875195053
 72
     1
 10
219.8909739169921
 20
162.7486875195053
 11
223.8909741069819
 21
162.0820208211736
 72
     1
 10
223.8909741069819
 20
162.0820208211736
 11
223.8909741069819
 21
163.4153542178369
 97
        0
 75
     0
 76
     1
 98
        0
  0
LWPOLYLINE
  5
320
330
31B
100
AcDbEntity
  8
Default
  6
Continuous
 62
     7
 48
25.4
370
    20
100
AcDbPolyline
 90
        4
 70
     1
 43
0.0
 10
223.890974107
 20
163.4153542178
 10
219.890973917
 20
162.7486875195
 10
223.890974107
 20
162.0820208212
 10
223.890974107
 20
163.4153542178
  0
LINE
  5
321
330
31B
100
AcDbEntity
  8
Default
  6
Continuous
 62
     7
 48
25.4
100
AcDbLine
 10
218.540973917
 20
149.6368512426
 30
0.0
 11
218.540973917
 21
164.7486876145
 31
0.0
  0
LINE
  5
322
330
31B
100
AcDbEntity
  8
Default
  6
Continuous
 62
     7
 48
25.4
100
AcDbLine
 10
219.890973917
 20
138.9868512426
 30
0.0
 11
219.890973917
 21
164.7486876145
 31
0.0
  0
LINE
  5
323
330
31B
100
AcDbEntity
  8
Default
  6
Continuous
 62
     7
 48
25.4
100
AcDbLine
 10
210.540973537
 20
162.7486875195
 30
0.0
 11
238.0678616021
 21
162.7486875195
 31
0.0
  0
TEXT
  5
324
330
31B
100
AcDbEntity
  8
Default
  6
Continuous
 62
     7
 48
25.4
100
AcDbText
 10
225.7113391589
 20
163.7486875195
 30
0.0
 40
4.0
  1
2.25
  7
SEACAD_arial_ttf
 11
225.7113391589
 21
167.7486875195
 31
0.0
100
AcDbText
 73
     3
  0
ENDBLK
  5
326
330
31B
100
AcDbEntity
  8
0
100
AcDbBlockEnd
  0
BLOCK
  5
331
330
327
100
AcDbEntity
  8
0
100
AcDbBlockBegin
  2
GDimGGroup6
 70
     0
 71
     0
 10
0.0
 20
0.0
 30
0.0
  3
GDimGGroup6
  1

  0
HATCH
  5
329
330
327
100
AcDbEntity
  8
Default
  6
Continuous
 62
     7
 48
25.4
100
AcDbHatch
 10
0.0
 20
0.0
 30
0.0
210
0.0
220
0.0
230
1.0
  2
SOLID
 70
     1
 71
     0
 91
        1
 92
        1
 93
        3
 72
     1
 10
503.0574091354103
 20
362.8895880352363
 11
506.4024942256373
 21
360.5972416945356
 72
     1
 10
506.4024942256373
 20
360.5972416945357
 11
503.981688223758
 21
363.8505698839208
 72
     1
 10
503.981688223758
 20
363.8505698839208
 11
503.0574091354103
 21
362.8895880352364
 97
        0
 75
     0
 76
     1
 98
        0
  0
LWPOLYLINE
  5
32A
330
327
100
AcDbEntity
  8
Default
  6
Continuous
 62
     7
 48
25.4
370
    20
100
AcDbPolyline
 90
        4
 70
     1
 43
0.0
 10
503.0574091354
 20
362.8895880352
 10
506.4024942256
 20
360.5972416945
 10
503.9816882238
 20
363.8505698839
 10
503.0574091354
 20
362.8895880352
  0
HATCH
  5
32B
330
327
100
AcDbEntity
  8
Default
  6
Continuous
 62
     7
 48
25.4
100
AcDbHatch
 10
0.0
 20
0.0
 30
0.0
210
0.0
220
0.0
230
1.0
  2
SOLID
 70
     1
 71
     0
 91
        1
 92
        1
 93
        3
 72
     1
 10
437.7635432388016
 20
391.2790227606178
 11
433.7513244871178
 21
390.690340592364
 72
     1
 10
433.7513244871178
 20
390.690340592364
 11
437.7375904959821
 21
389.9459419671932
 72
     1
 10
437.7375904959821
 20
389.9459419671932
 11
437.7635432388016
 21
391.2790227606178
 97
        0
 75
     0
 76
     1
 98
        0
  0
LWPOLYLINE
  5
32C
330
327
100
AcDbEntity
  8
Default
  6
Continuous
 62
     7
 48
25.4
370
    20
100
AcDbPolyline
 90
        4
 70
     1
 43
0.0
 10
437.7635432388
 20
391.2790227606
 10
433.7513244871
 20
390.6903405924
 10
437.737590496
 20
389.9459419672
 10
437.7635432388
 20
391.2790227606
  0
LINE
  5
32D
330
327
100
AcDbEntity
  8
Default
  6
Continuous
 62
     7
 48
25.4
100
AcDbLine
 10
462.0497402498
 20
316.2444877187
 30
0.0
 11
507.8167053856
 21
362.0114528545
 31
0.0
  0
LINE
  5
32E
330
327
100
AcDbEntity
  8
Default
  6
Continuous
 62
     7
 48
25.4
100
AcDbLine
 10
433.7513267327
 20
287.9460742016
 30
0.0
 11
433.7513267327
 21
392.6903371949
 31
0.0
  0
ARC
  5
32F
330
327
100
AcDbEntity
  8
Default
  6
Continuous
 62
     7
 48
25.4
100
AcDbCircle
 10
433.7513267327
 20
287.9460742016
 30
0.0
 40
102.7442663908007
100
AcDbArc
 50
45.0
 51
90.0000012522
  0
TEXT
  5
330
330
327
100
AcDbEntity
  8
Default
  6
Continuous
 62
     7
 48
25.4
100
AcDbText
 10
469.5160085013
 20
385.4238427255
 30
0.0
 40
4.0
  1
45°
 50
337.5
  7
SEACAD_arial_ttf
 11
471.0467422308
 21
389.1193608555
 31
0.0
100
AcDbText
 73
     3
  0
ENDBLK
  5
332
330
327
100
AcDbEntity
  8
0
100
AcDbBlockEnd
  0
BLOCK
  5
33D
330
333
100
AcDbEntity
  8
0
100
AcDbBlockBegin
  2
GDimGGroup7
 70
     0
 71
     0
 10
0.0
 20
0.0
 30
0.0
  3
GDimGGroup7
  1

  0
HATCH
  5
335
330
333
100
AcDbEntity
  8
Default
  6
Continuous
 62
     7
 48
25.4
100
AcDbHatch
 10
0.0
 20
0.0
 30
0.0
210
0.0
220
0.0
230
1.0
  2
SOLID
 70
     1
 71
     0
 91
        1
 92
        1
 93
        3
 72
     1
 10
520.0926703314538
 20
342.398215659085
 11
522.7304715202942
 21
339.3182073969637
 72
     1
 10
522.7304715202942
 20
339.3182073969637
 11
521.2341757780251
 21
343.0872318142699
 72
     1
 10
521.2341757780251
 20
343.0872318142699
 11
520.0926703314539
 21
342.398215659085
 97
        0
 75
     0
 76
     1
 98
        0
  0
LWPOLYLINE
  5
336
330
333
100
AcDbEntity
  8
Default
  6
Continuous
 62
     7
 48
25.4
370
    20
100
AcDbPolyline
 90
        4
 70
     1
 43
0.0
 10
520.0926703315
 20
342.3982156591
 10
522.7304715203
 20
339.318207397
 10
521.234175778
 20
343.0872318143
 10
520.0926703315
 20
342.3982156591
  0
HATCH
  5
337
330
333
100
AcDbEntity
  8
Default
  6
Continuous
 62
     7
 48
25.4
100
AcDbHatch
 10
0.0
 20
0.0
 30
0.0
210
0.0
220
0.0
230
1.0
  2
SOLID
 70
     1
 71
     0
 91
        1
 92
        1
 93
        3
 72
     1
 10
509.6558219011398
 20
358.1764362426302
 11
506.4024936963567
 21
360.5972422238162
 72
     1
 10
506.4024936963567
 20
360.5972422238162
 11
508.6948400583344
 21
357.2521571481701
 72
     1
 10
508.6948400583344
 20
357.2521571481701
 11
509.6558219011398
 21
358.1764362426302
 97
        0
 75
     0
 76
     1
 98
        0
  0
LWPOLYLINE
  5
338
330
333
100
AcDbEntity
  8
Default
  6
Continuous
 62
     7
 48
25.4
370
    20
100
AcDbPolyline
 90
        4
 70
     1
 43
0.0
 10
509.6558219011
 20
358.1764362426
 10
506.4024936964
 20
360.5972422238
 10
508.6948400583
 20
357.2521571482
 10
509.6558219011
 20
358.1764362426
  0
LINE
  5
339
330
333
100
AcDbEntity
  8
Default
  6
Continuous
 62
     7
 48
25.4
100
AcDbLine
 10
478.2823525193
 20
313.6560739268
 30
0.0
 11
524.4625193856
 21
340.3182056982
 31
0.0
  0
LINE
  5
33A
330
333
100
AcDbEntity
  8
Default
  6
Continuous
 62
     7
 48
25.4
100
AcDbLine
 10
462.0497402498
 20
316.2444877187
 30
0.0
 11
507.8167053856
 21
362.0114528545
 31
0.0
  0
ARC
  5
33B
330
333
100
AcDbEntity
  8
Default
  6
Continuous
 62
     7
 48
25.4
100
AcDbCircle
 10
433.7513267327
 20
287.9460742016
 30
0.0
 40
102.7442663907993
100
AcDbArc
 50
30.0
 51
45.0000004174
  0
TEXT
  5
33C
330
333
100
AcDbEntity
  8
Default
  6
Continuous
 62
     7
 48
25.4
100
AcDbText
 10
513.4633339645
 20
354.4819571632
 30
0.0
 40
4.0
  1
15°
 50
307.5
  7
SEACAD_arial_ttf
 11
516.6367473257
 21
356.9170028792
 31
0.0
100
AcDbText
 73
     3
  0
ENDBLK
  5
33E
330
333
100
AcDbEntity
  8
0
100
AcDbBlockEnd
  0
BLOCK
  5
349
330
33F
100
AcDbEntity
  8
0
100
AcDbBlockBegin
  2
GDimGGroup8
 70
     0
 71
     0
 10
0.0
 20
0.0
 30
0.0
  3
GDimGGroup8
  1

  0
HATCH
  5
341
330
33F
100
AcDbEntity
  8
Default
  6
Continuous
 62
     7
 48
25.4
100
AcDbHatch
 10
0.0
 20
0.0
 30
0.0
210
0.0
220
0.0
230
1.0
  2
SOLID
 70
     1
 71
     0
 91
        1
 92
        1
 93
        3
 72
     1
 10
531.2439116470565
 20
318.1960198290221
 11
532.9946671426633
 21
314.5382471185895
 72
     1
 10
532.9946671426633
 20
314.5382471185895
 11
532.5248517420945
 21
318.5661149783847
 72
     1
 10
532.5248517420945
 20
318.5661149783847
 11
531.2439116470565
 21
318.1960198290221
 97
        0
 75
     0
 76
     1
 98
        0
  0
LWPOLYLINE
  5
342
330
33F
100
AcDbEntity
  8
Default
  6
Continuous
 62
     7
 48
25.4
370
    20
100
AcDbPolyline
 90
        4
 70
     1
 43
0.0
 10
531.2439116471
 20
318.196019829
 10
532.9946671427
 20
314.5382471186
 10
532.5248517421
 20
318.5661149784
 10
531.2439116471
 20
318.196019829
  0
HATCH
  5
343
330
33F
100
AcDbEntity
  8
Default
  6
Continuous
 62
     7
 48
25.4
100
AcDbHatch
 10
0.0
 20
0.0
 30
0.0
210
0.0
220
0.0
230
1.0
  2
SOLID
 70
     1
 71
     0
 91
        1
 92
        1
 93
        3
 72
     1
 10
525.2463941880018
 20
336.1378657281678
 11
522.7304711460362
 21
339.3182080451974
 72
     1
 10
522.7304711460362
 20
339.3182080451974
 11
524.0789359748048
 21
335.4938010830454
 72
     1
 10
524.078935974805
 20
335.4938010830454
 11
525.2463941880018
 21
336.1378657281678
 97
        0
 75
     0
 76
     1
 98
        0
  0
LWPOLYLINE
  5
344
330
33F
100
AcDbEntity
  8
Default
  6
Continuous
 62
     7
 48
25.4
370
    20
100
AcDbPolyline
 90
        4
 70
     1
 43
0.0
 10
525.246394188
 20
336.1378657282
 10
522.730471146
 20
339.3182080452
 10
524.0789359748
 20
335.493801083
 10
525.246394188
 20
336.1378657282
  0
LINE
  5
345
330
33F
100
AcDbEntity
  8
Default
  6
Continuous
 62
     7
 48
25.4
100
AcDbLine
 10
472.4076784838
 20
298.3040124356
 30
0.0
 11
534.9265155135
 21
315.0558843295
 31
0.0
  0
LINE
  5
346
330
33F
100
AcDbEntity
  8
Default
  6
Continuous
 62
     7
 48
25.4
100
AcDbLine
 10
478.2823525193
 20
313.6560739268
 30
0.0
 11
524.4625193856
 21
340.3182056982
 31
0.0
  0
ARC
  5
347
330
33F
100
AcDbEntity
  8
Default
  6
Continuous
 62
     7
 48
25.4
100
AcDbCircle
 10
433.7513267327
 20
287.9460742016
 30
0.0
 40
102.7442663908042
100
AcDbArc
 50
15.0
 51
30.0000004174
  0
TEXT
  5
348
330
33F
100
AcDbEntity
  8
Default
  6
Continuous
 62
     7
 48
25.4
100
AcDbText
 10
527.9679668764
 20
331.5838163342
 30
0.0
 40
4.0
  1
15°
 50
292.5
  7
SEACAD_arial_ttf
 11
531.6634850065
 21
333.1145500637
 31
0.0
100
AcDbText
 73
     3
  0
ENDBLK
  5
34A
330
33F
100
AcDbEntity
  8
0
100
AcDbBlockEnd
  0
BLOCK
  5
355
330
34B
100
AcDbEntity
  8
0
100
AcDbBlockBegin
  2
GDimGGroup9
 70
     0
 71
     0
 10
0.0
 20
0.0
 30
0.0
  3
GDimGGroup9
  1

  0
HATCH
  5
34D
330
34B
100
AcDbEntity
  8
Default
  6
Continuous
 62
     7
 48
25.4
100
AcDbHatch
 10
0.0
 20
0.0
 30
0.0
210
0.0
220
0.0
230
1.0
  2
SOLID
 70
     1
 71
     0
 91
        1
 92
        1
 93
        3
 72
     1
 10
535.7511944148579
 20
291.9323401948467
 11
536.4955931234656
 21
287.9460742015635
 72
     1
 10
536.4955931234656
 20
287.9460742015635
 11
537.0842752077393
 21
291.9582929655691
 72
     1
 10
537.0842752077394
 20
291.9582929655691
 11
535.7511944148579
 21
291.9323401948467
 97
        0
 75
     0
 76
     1
 98
        0
  0
LWPOLYLINE
  5
34E
330
34B
100
AcDbEntity
  8
Default
  6
Continuous
 62
     7
 48
25.4
370
    20
100
AcDbPolyline
 90
        4
 70
     1
 43
0.0
 10
535.7511944149
 20
291.9323401948
 10
536.4955931235
 20
287.9460742016
 10
537.0842752077
 20
291.9582929656
 10
535.7511944149
 20
291.9323401948
  0
HATCH
  5
34F
330
34B
100
AcDbEntity
  8
Default
  6
Continuous
 62
     7
 48
25.4
100
AcDbHatch
 10
0.0
 20
0.0
 30
0.0
210
0.0
220
0.0
230
1.0
  2
SOLID
 70
     1
 71
     0
 91
        1
 92
        1
 93
        3
 72
     1
 10
534.6017288305307
 20
310.8151042618684
 11
532.9946669489331
 21
314.5382478416003
 72
     1
 10
532.9946669489332
 20
314.5382478416003
 11
533.3073545948557
 21
310.4951460072817
 72
     1
 10
533.3073545948557
 20
310.4951460072817
 11
534.6017288305308
 21
310.8151042618684
 97
        0
 75
     0
 76
     1
 98
        0
  0
LWPOLYLINE
  5
350
330
34B
100
AcDbEntity
  8
Default
  6
Continuous
 62
     7
 48
25.4
370
    20
100
AcDbPolyline
 90
        4
 70
     1
 43
0.0
 10
534.6017288305
 20
310.8151042619
 10
532.9946669489
 20
314.5382478416
 10
533.3073545949
 20
310.4951460073
 10
534.6017288305
 20
310.8151042619
  0
LINE
  5
351
330
34B
100
AcDbEntity
  8
Default
  6
Continuous
 62
     7
 48
25.4
100
AcDbLine
 10
538.4407609034
 20
287.9460742016
 30
0.0
 11
534.4955965209
 21
287.9460742016
 31
0.0
  0
LINE
  5
352
330
34B
100
AcDbEntity
  8
Default
  6
Continuous
 62
     7
 48
25.4
100
AcDbLine
 10
472.4076784838
 20
298.3040124356
 30
0.0
 11
534.9265155135
 21
315.0558843295
 31
0.0
  0
ARC
  5
353
330
34B
100
AcDbEntity
  8
Default
  6
Continuous
 62
     7
 48
25.4
100
AcDbCircle
 10
433.7513267327
 20
287.9460742016
 30
0.0
 40
102.7442663907898
100
AcDbArc
 50
0.0
 51
15.0000004174
  0
TEXT
  5
354
330
34B
100
AcDbEntity
  8
Default
  6
Continuous
 62
     7
 48
25.4
100
AcDbText
 10
536.0518914629
 20
305.7118354936
 30
0.0
 40
4.0
  1
15°
 50
277.5
  7
SEACAD_arial_ttf
 11
540.0176709084
 21
306.2339402625
 31
0.0
100
AcDbText
 73
     3
  0
ENDBLK
  5
356
330
34B
100
AcDbEntity
  8
0
100
AcDbBlockEnd
  0
BLOCK
  5
361
330
357
100
AcDbEntity
  8
0
100
AcDbBlockBegin
  2
GDimGGroup10
 70
     0
 71
     0
 10
0.0
 20
0.0
 30
0.0
  3
GDimGGroup10
  1

  0
HATCH
  5
359
330
357
100
AcDbEntity
  8
Default
  6
Continuous
 62
     7
 48
25.4
100
AcDbHatch
 10
0.0
 20
0.0
 30
0.0
210
0.0
220
0.0
230
1.0
  2
SOLID
 70
     1
 71
     0
 91
        1
 92
        1
 93
        3
 72
     1
 10
524.07876180394
 20
240.3980164368277
 11
522.7302829623213
 21
236.5736144155583
 72
     1
 10
522.7302829623213
 20
236.5736144155583
 11
525.2462176572373
 21
239.7539475140719
 72
     1
 10
525.2462176572373
 20
239.7539475140719
 11
524.07876180394
 21
240.3980164368277
 97
        0
 75
     0
 76
     1
 98
        0
  0
LWPOLYLINE
  5
35A
330
357
100
AcDbEntity
  8
Default
  6
Continuous
 62
     7
 48
25.4
370
    20
100
AcDbPolyline
 90
        4
 70
     1
 43
0.0
 10
524.0787618039
 20
240.3980164368
 10
522.7302829623
 20
236.5736144156
 10
525.2462176572
 20
239.7539475141
 10
524.0787618039
 20
240.3980164368
  0
HATCH
  5
35B
330
357
100
AcDbEntity
  8
Default
  6
Continuous
 62
     7
 48
25.4
100
AcDbHatch
 10
0.0
 20
0.0
 30
0.0
210
0.0
220
0.0
230
1.0
  2
SOLID
 70
     1
 71
     0
 91
        1
 92
        1
 93
        3
 72
     1
 10
537.0842751239155
 20
283.9338533737094
 11
536.4955931234656
 21
287.9460721500137
 72
     1
 10
536.4955931234656
 20
287.9460721500137
 11
535.7511943315762
 21
283.9598061722826
 72
     1
 10
535.7511943315762
 20
283.9598061722826
 11
537.0842751239155
 21
283.9338533737094
 97
        0
 75
     0
 76
     1
 98
        0
  0
LWPOLYLINE
  5
35C
330
357
100
AcDbEntity
  8
Default
  6
Continuous
 62
     7
 48
25.4
370
    20
100
AcDbPolyline
 90
        4
 70
     1
 43
0.0
 10
537.0842751239
 20
283.9338533737
 10
536.4955931235
 20
287.94607215
 10
535.7511943316
 20
283.9598061723
 10
537.0842751239
 20
283.9338533737
  0
LINE
  5
35D
330
357
100
AcDbEntity
  8
Default
  6
Continuous
 62
     7
 48
25.4
100
AcDbLine
 10
495.0657944685
 20
252.5458496819
 30
0.0
 11
524.4623271572
 21
235.573609757
 31
0.0
  0
LINE
  5
35E
330
357
100
AcDbEntity
  8
Default
  6
Continuous
 62
     7
 48
25.4
100
AcDbLine
 10
538.4407609034
 20
287.9460742016
 30
0.0
 11
534.4955965209
 21
287.9460742016
 31
0.0
  0
ARC
  5
35F
330
357
100
AcDbEntity
  8
Default
  6
Continuous
 62
     7
 48
25.4
100
AcDbCircle
 10
433.7513267327
 20
287.9460742016
 30
0.0
 40
102.7442663908008
100
AcDbArc
 50
329.9997897003
 51
359.9999988559
  0
TEXT
  5
360
330
357
100
AcDbEntity
  8
Default
  6
Continuous
 62
     7
 48
25.4
100
AcDbText
 10
530.9258912436
 20
257.4968580383
 30
0.0
 40
4.0
  1
30°
 50
74.9998948502
  7
SEACAD_arial_ttf
 11
527.0621898384
 21
258.5321413094
 31
0.0
100
AcDbText
 73
     3
  0
ENDBLK
  5
362
330
357
100
AcDbEntity
  8
0
100
AcDbBlockEnd
  0
BLOCK
  5
36B
330
363
100
AcDbEntity
  8
0
100
AcDbBlockBegin
  2
GDimGGroup11
 70
     0
 71
     0
 10
0.0
 20
0.0
 30
0.0
  3
GDimGGroup11
  1

  0
LINE
  5
365
330
363
100
AcDbEntity
  8
Default
  6
Continuous
 62
     7
 48
25.4
100
AcDbLine
 10
433.7513267327
 20
287.9460742016
 30
0.0
 11
481.1759778565
 21
349.0078630663
 31
0.0
  0
HATCH
  5
366
330
363
100
AcDbEntity
  8
Default
  6
Continuous
 62
     7
 48
25.4
100
AcDbHatch
 10
0.0
 20
0.0
 30
0.0
210
0.0
220
0.0
230
1.0
  2
SOLID
 70
     1
 71
     0
 91
        1
 92
        1
 93
        3
 72
     1
 10
467.2190851265003
 20
332.1244627375549
 11
465.292028619163
 21
328.556424169362
 72
     1
 10
465.2920286191631
 20
328.556424169362
 11
468.2721216076798
 21
331.3066044882459
 72
     1
 10
468.2721216076798
 20
331.3066044882459
 11
467.2190851265003
 21
332.124462737555
 97
        0
 75
     0
 76
     1
 98
        0
  0
LWPOLYLINE
  5
367
330
363
100
AcDbEntity
  8
Default
  6
Continuous
 62
     7
 48
25.4
370
    20
100
AcDbPolyline
 90
        4
 70
     1
 43
0.0
 10
467.2190851265
 20
332.1244627376
 10
465.2920286192
 20
328.5564241694
 10
468.2721216077
 20
331.3066044882
 10
467.2190851265
 20
332.1244627376
  0
ARC
  5
368
330
363
100
AcDbEntity
  8
Default
  6
Continuous
 62
     7
 48
25.4
100
AcDbCircle
 10
433.7513267327
 20
287.9460742016
 30
0.0
 40
51.42000000000439
100
AcDbArc
 50
38.3644531023
 51
54.3932475131
  0
TEXT
  5
369
330
363
100
AcDbEntity
  8
Default
  6
Continuous
 62
     7
 48
25.4
100
AcDbText
 10
468.8810692937
 20
334.8077814965
 30
0.0
 40
4.0
  1
R
 50
52.1647068864
  7
SEACAD_arial_ttf
 11
465.7219600002
 21
337.2613561279
 31
0.0
100
AcDbText
 73
     3
  0
TEXT
  5
36A
330
363
100
AcDbEntity
  8
Default
  6
Continuous
 62
     7
 48
25.4
100
AcDbText
 10
472.8067887039
 20
339.8623563661
 30
0.0
 40
4.0
  1
85.7
 50
52.1647068864
  7
SEACAD_arial_ttf
 11
469.6476794104
 21
342.3159309975
 31
0.0
100
AcDbText
 73
     3
  0
ENDBLK
  5
36C
330
363
100
AcDbEntity
  8
0
100
AcDbBlockEnd
  0
BLOCK
  5
376
330
36D
100
AcDbEntity
  8
0
100
AcDbBlockBegin
  2
GDimGGroup12
 70
     0
 71
     0
 10
0.0
 20
0.0
 30
0.0
  3
GDimGGroup12
  1

  0
LINE
  5
36F
330
36D
100
AcDbEntity
  8
Default
  6
Continuous
 62
     7
 48
25.4
100
AcDbLine
 10
433.7513267327
 20
287.9460742016
 30
0.0
 11
512.8305227466
 21
296.2449381121
 31
0.0
  0
HATCH
  5
370
330
36D
100
AcDbEntity
  8
Default
  6
Continuous
 62
     7
 48
25.4
100
AcDbHatch
 10
0.0
 20
0.0
 30
0.0
210
0.0
220
0.0
230
1.0
  2
SOLID
 70
     1
 71
     0
 91
        1
 92
        1
 93
        3
 72
     1
 10
477.461330422244
 20
293.203491692155
 11
473.5527566874021
 21
292.1229837718293
 72
     1
 10
473.5527566874021
 20
292.1229837718294
 11
477.6004911674933
 21
291.8774403229995
 72
     1
 10
477.6004911674933
 20
291.8774403229995
 11
477.461330422244
 21
293.2034916921551
 97
        0
 75
     0
 76
     1
 98
        0
  0
LWPOLYLINE
  5
371
330
36D
100
AcDbEntity
  8
Default
  6
Continuous
 62
     7
 48
25.4
370
    20
100
AcDbPolyline
 90
        4
 70
     1
 43
0.0
 10
477.4613304222
 20
293.2034916922
 10
473.5527566874
 20
292.1229837718
 10
477.6004911675
 20
291.877440323
 10
477.4613304222
 20
293.2034916922
  0
ARC
  5
372
330
36D
100
AcDbEntity
  8
Default
  6
Continuous
 62
     7
 48
25.4
100
AcDbCircle
 10
433.7513267327
 20
287.9460742016
 30
0.0
 40
40.01999999999618
100
AcDbArc
 50
3.1275454068
 51
9.8442175302
  0
TEXT
  5
373
330
36D
100
AcDbEntity
  8
Default
  6
Continuous
 62
     7
 48
25.4
100
AcDbText
 10
481.2727943925
 20
293.9386446527
 30
0.0
 40
4.0
  1
R
 50
5.9909027038
  7
SEACAD_arial_ttf
 11
480.8553121766
 21
297.9167985713
 31
0.0
100
AcDbText
 73
     3
  0
TEXT
  5
374
330
36D
100
AcDbEntity
  8
Default
  6
Continuous
 62
     7
 48
25.4
100
AcDbText
 10
487.6378406621
 20
294.6066161982
 30
0.0
 40
4.0
  1
66.7
 50
5.9909027038
  7
SEACAD_arial_ttf
 11
487.2203584462
 21
298.5847701167
 31
0.0
100
AcDbText
 73
     3
  0
TEXT
  5
375
330
36D
100
AcDbEntity
  8
Default
  6
Continuous
 62
     7
 48
25.4
100
AcDbText
 10
500.5236000938
 20
295.9588955498
 30
0.0
 40
4.0
  1
±0.1
 50
5.9909027038
  7
SEACAD_arial_ttf
 11
500.1061178779
 21
299.9370494683
 31
0.0
100
AcDbText
 73
     3
  0
ENDBLK
  5
377
330
36D
100
AcDbEntity
  8
0
100
AcDbBlockEnd
  0
BLOCK
  5
382
330
378
100
AcDbEntity
  8
0
100
AcDbBlockBegin
  2
GDimGGroup13
 70
     0
 71
     0
 10
0.0
 20
0.0
 30
0.0
  3
GDimGGroup13
  1

  0
HATCH
  5
37A
330
378
100
AcDbEntity
  8
Default
  6
Continuous
 62
     7
 48
25.4
100
AcDbHatch
 10
0.0
 20
0.0
 30
0.0
210
0.0
220
0.0
230
1.0
  2
SOLID
 70
     1
 71
     0
 91
        1
 92
        1
 93
        3
 72
     1
 10
125.8204508676828
 20
177.034976504558
 11
125.8204508676828
 21
178.3683099012212
 72
     1
 10
125.8204508676828
 20
178.3683099012212
 11
121.820450677693
 21
177.7016432028896
 72
     1
 10
121.820450677693
 20
177.7016432028896
 11
125.8204508676828
 21
177.034976504558
 97
        0
 75
     0
 76
     1
 98
        0
  0
LWPOLYLINE
  5
37B
330
378
100
AcDbEntity
  8
Default
  6
Continuous
 62
     7
 48
25.4
370
    20
100
AcDbPolyline
 90
        4
 70
     1
 43
0.0
 10
125.8204508677
 20
177.0349765046
 10
121.8204506777
 20
177.7016432029
 10
125.8204508677
 20
178.3683099012
 10
125.8204508677
 20
177.0349765046
  0
HATCH
  5
37C
330
378
100
AcDbEntity
  8
Default
  6
Continuous
 62
     7
 48
25.4
100
AcDbHatch
 10
0.0
 20
0.0
 30
0.0
210
0.0
220
0.0
230
1.0
  2
SOLID
 70
     1
 71
     0
 91
        1
 92
        1
 93
        3
 72
     1
 10
212.6204533606471
 20
177.034976504558
 11
216.6204535506369
 21
177.7016432028896
 72
     1
 10
216.6204535506369
 20
177.7016432028896
 11
212.6204533606471
 21
178.3683099012212
 72
     1
 10
212.6204533606471
 20
178.3683099012212
 11
212.6204533606471
 21
177.034976504558
 97
        0
 75
     0
 76
     1
 98
        0
  0
LWPOLYLINE
  5
37D
330
378
100
AcDbEntity
  8
Default
  6
Continuous
 62
     7
 48
25.4
370
    20
100
AcDbPolyline
 90
        4
 70
     1
 43
0.0
 10
212.6204533606
 20
177.0349765046
 10
216.6204535506
 20
177.7016432029
 10
212.6204533606
 20
178.3683099012
 10
212.6204533606
 20
177.0349765046
  0
LINE
  5
37E
330
378
100
AcDbEntity
  8
Default
  6
Continuous
 62
     7
 48
25.4
100
AcDbLine
 10
121.8204506777
 20
228.2791831535
 30
0.0
 11
121.8204506777
 21
175.7016431079
 31
0.0
  0
LINE
  5
37F
330
378
100
AcDbEntity
  8
Default
  6
Continuous
 62
     7
 48
25.4
100
AcDbLine
 10
216.6204506777
 20
203.3791831535
 30
0.0
 11
216.6204506777
 21
175.7016431079
 31
0.0
  0
LINE
  5
380
330
378
100
AcDbEntity
  8
Default
  6
Continuous
 62
     7
 48
25.4
100
AcDbLine
 10
121.8204506777
 20
177.7016432029
 30
0.0
 11
216.6204535506
 21
177.7016432029
 31
0.0
  0
TEXT
  5
381
330
378
100
AcDbEntity
  8
Default
  6
Continuous
 62
     7
 48
25.4
100
AcDbText
 10
164.5247999403
 20
178.7016432029
 30
0.0
 40
4.0
  1
158
  7
SEACAD_arial_ttf
 11
164.5247999403
 21
182.7016432029
 31
0.0
100
AcDbText
 73
     3
  0
ENDBLK
  5
383
330
378
100
AcDbEntity
  8
0
100
AcDbBlockEnd
  0
BLOCK
  5
38E
330
384
100
AcDbEntity
  8
0
100
AcDbBlockBegin
  2
GDimGGroup14
 70
     0
 71
     0
 10
0.0
 20
0.0
 30
0.0
  3
GDimGGroup14
  1

  0
HATCH
  5
386
330
384
100
AcDbEntity
  8
Default
  6
Continuous
 62
     7
 48
25.4
100
AcDbHatch
 10
0.0
 20
0.0
 30
0.0
210
0.0
220
0.0
230
1.0
  2
SOLID
 70
     1
 71
     0
 91
        1
 92
        1
 93
        3
 72
     1
 10
125.8204508676828
 20
176.9678653998312
 11
125.8204508676828
 21
178.3011987964945
 72
     1
 10
125.8204508676828
 20
178.3011987964945
 11
121.820450677693
 21
177.6345320981628
 72
     1
 10
121.820450677693
 20
177.6345320981628
 11
125.8204508676828
 21
176.9678653998312
 97
        0
 75
     0
 76
     1
 98
        0
  0
LWPOLYLINE
  5
387
330
384
100
AcDbEntity
  8
Default
  6
Continuous
 62
     7
 48
25.4
370
    20
100
AcDbPolyline
 90
        4
 70
     1
 43
0.0
 10
125.8204508677
 20
176.9678653998
 10
121.8204506777
 20
177.6345320982
 10
125.8204508677
 20
178.3011987965
 10
125.8204508677
 20
176.9678653998
  0
HATCH
  5
388
330
384
100
AcDbEntity
  8
Default
  6
Continuous
 62
     7
 48
25.4
100
AcDbHatch
 10
0.0
 20
0.0
 30
0.0
210
0.0
220
0.0
230
1.0
  2
SOLID
 70
     1
 71
     0
 91
        1
 92
        1
 93
        3
 72
     1
 10
106.7204504877032
 20
176.9678653998312
 11
110.720450677693
 21
177.6345320981628
 72
     1
 10
110.720450677693
 20
177.6345320981628
 11
106.7204504877032
 21
178.3011987964945
 72
     1
 10
106.7204504877032
 20
178.3011987964945
 11
106.7204504877032
 21
176.9678653998312
 97
        0
 75
     0
 76
     1
 98
        0
  0
LWPOLYLINE
  5
389
330
384
100
AcDbEntity
  8
Default
  6
Continuous
 62
     7
 48
25.4
370
    20
100
AcDbPolyline
 90
        4
 70
     1
 43
0.0
 10
106.7204504877
 20
176.9678653998
 10
110.7204506777
 20
177.6345320982
 10
106.7204504877
 20
178.3011987965
 10
106.7204504877
 20
176.9678653998
  0
LINE
  5
38A
330
384
100
AcDbEntity
  8
Default
  6
Continuous
 62
     7
 48
25.4
100
AcDbLine
 10
121.8204506777
 20
228.2791831535
 30
0.0
 11
121.8204506777
 21
175.6345320032
 31
0.0
  0
LINE
  5
38B
330
384
100
AcDbEntity
  8
Default
  6
Continuous
 62
     7
 48
25.4
100
AcDbLine
 10
110.7204506777
 20
253.3591831535
 30
0.0
 11
110.7204506777
 21
175.6345320032
 31
0.0
  0
LINE
  5
38C
330
384
100
AcDbEntity
  8
Default
  6
Continuous
 62
     7
 48
25.4
100
AcDbLine
 10
129.8204510577
 20
177.6345320982
 30
0.0
 11
102.7204514585
 21
177.6345320982
 31
0.0
  0
TEXT
  5
38D
330
384
100
AcDbEntity
  8
Default
  6
Continuous
 62
     7
 48
25.4
100
AcDbText
 10
110.7921899229
 20
178.6345320982
 30
0.0
 40
4.0
  1
18.5
  7
SEACAD_arial_ttf
 11
110.7921899229
 21
182.6345320982
 31
0.0
100
AcDbText
 73
     3
  0
ENDBLK
  5
38F
330
384
100
AcDbEntity
  8
0
100
AcDbBlockEnd
  0
BLOCK
  5
39A
330
390
100
AcDbEntity
  8
0
100
AcDbBlockBegin
  2
GDimGGroup15
 70
     0
 71
     0
 10
0.0
 20
0.0
 30
0.0
  3
GDimGGroup15
  1

  0
HATCH
  5
392
330
390
100
AcDbEntity
  8
Default
  6
Continuous
 62
     7
 48
25.4
100
AcDbHatch
 10
0.0
 20
0.0
 30
0.0
210
0.0
220
0.0
230
1.0
  2
SOLID
 70
     1
 71
     0
 91
        1
 92
        1
 93
        3
 72
     1
 10
132.8204504877032
 20
190.1156404836115
 11
136.820450677693
 21
190.7823071819431
 72
     1
 10
136.820450677693
 20
190.7823071819431
 11
132.8204504877032
 21
191.4489738802747
 72
     1
 10
132.8204504877032
 20
191.4489738802747
 11
132.8204504877032
 21
190.1156404836115
 97
        0
 75
     0
 76
     1
 98
        0
  0
LWPOLYLINE
  5
393
330
390
100
AcDbEntity
  8
Default
  6
Continuous
 62
     7
 48
25.4
370
    20
100
AcDbPolyline
 90
        4
 70
     1
 43
0.0
 10
132.8204504877
 20
190.1156404836
 10
136.8204506777
 20
190.7823071819
 10
132.8204504877
 20
191.4489738803
 10
132.8204504877
 20
190.1156404836
  0
HATCH
  5
394
330
390
100
AcDbEntity
  8
Default
  6
Continuous
 62
     7
 48
25.4
100
AcDbHatch
 10
0.0
 20
0.0
 30
0.0
210
0.0
220
0.0
230
1.0
  2
SOLID
 70
     1
 71
     0
 91
        1
 92
        1
 93
        3
 72
     1
 10
125.8204512029589
 20
190.1156404836115
 11
125.8204512029589
 21
191.4489738802747
 72
     1
 10
125.8204512029589
 20
191.4489738802747
 11
121.8204510129691
 21
190.7823071819431
 72
     1
 10
121.8204510129691
 20
190.7823071819431
 11
125.8204512029589
 21
190.1156404836115
 97
        0
 75
     0
 76
     1
 98
        0
  0
LWPOLYLINE
  5
395
330
390
100
AcDbEntity
  8
Default
  6
Continuous
 62
     7
 48
25.4
370
    20
100
AcDbPolyline
 90
        4
 70
     1
 43
0.0
 10
125.820451203
 20
190.1156404836
 10
121.820451013
 20
190.7823071819
 10
125.820451203
 20
191.4489738803
 10
125.820451203
 20
190.1156404836
  0
LINE
  5
396
330
390
100
AcDbEntity
  8
Default
  6
Continuous
 62
     7
 48
25.4
100
AcDbLine
 10
136.8204506777
 20
228.2791831535
 30
0.0
 11
136.8204506777
 21
188.7823070869
 31
0.0
  0
LINE
  5
397
330
390
100
AcDbEntity
  8
Default
  6
Continuous
 62
     7
 48
25.4
100
AcDbLine
 10
121.8204506777
 20
228.2791831535
 30
0.0
 11
121.8204506777
 21
188.7823070869
 31
0.0
  0
LINE
  5
398
330
390
100
AcDbEntity
  8
Default
  6
Continuous
 62
     7
 48
25.4
100
AcDbLine
 10
136.8204506777
 20
190.7823071819
 30
0.0
 11
121.820451013
 21
190.7823071819
 31
0.0
  0
TEXT
  5
399
330
390
100
AcDbEntity
  8
Default
  6
Continuous
 62
     7
 48
25.4
100
AcDbText
 10
126.1900160627
 20
191.7823071819
 30
0.0
 40
4.0
  1
25
  7
SEACAD_arial_ttf
 11
126.1900160627
 21
195.7823071819
 31
0.0
100
AcDbText
 73
     3
  0
ENDBLK
  5
39B
330
390
100
AcDbEntity
  8
0
100
AcDbBlockEnd
  0
BLOCK
  5
3A6
330
39C
100
AcDbEntity
  8
0
100
AcDbBlockBegin
  2
GDimGGroup16
 70
     0
 71
     0
 10
0.0
 20
0.0
 30
0.0
  3
GDimGGroup16
  1

  0
HATCH
  5
39E
330
39C
100
AcDbEntity
  8
Default
  6
Continuous
 62
     7
 48
25.4
100
AcDbHatch
 10
0.0
 20
0.0
 30
0.0
210
0.0
220
0.0
230
1.0
  2
SOLID
 70
     1
 71
     0
 91
        1
 92
        1
 93
        3
 72
     1
 10
212.6204504877032
 20
189.9403370125231
 11
216.620450677693
 21
190.6070037108547
 72
     1
 10
216.620450677693
 20
190.6070037108547
 11
212.6204504877032
 21
191.2736704091864
 72
     1
 10
212.6204504877032
 20
191.2736704091864
 11
212.6204504877032
 21
189.9403370125231
 97
        0
 75
     0
 76
     1
 98
        0
  0
LWPOLYLINE
  5
39F
330
39C
100
AcDbEntity
  8
Default
  6
Continuous
 62
     7
 48
25.4
370
    20
100
AcDbPolyline
 90
        4
 70
     1
 43
0.0
 10
212.6204504877
 20
189.9403370125
 10
216.6204506777
 20
190.6070037109
 10
212.6204504877
 20
191.2736704092
 10
212.6204504877
 20
189.9403370125
  0
HATCH
  5
3A0
330
39C
100
AcDbEntity
  8
Default
  6
Continuous
 62
     7
 48
25.4
100
AcDbHatch
 10
0.0
 20
0.0
 30
0.0
210
0.0
220
0.0
230
1.0
  2
SOLID
 70
     1
 71
     0
 91
        1
 92
        1
 93
        3
 72
     1
 10
205.0245099946559
 20
189.9403370125231
 11
205.0245099946559
 21
191.2736704091864
 72
     1
 10
205.0245099946559
 20
191.2736704091864
 11
201.0245098046661
 21
190.6070037108547
 72
     1
 10
201.0245098046661
 20
190.6070037108547
 11
205.0245099946559
 21
189.9403370125231
 97
        0
 75
     0
 76
     1
 98
        0
  0
LWPOLYLINE
  5
3A1
330
39C
100
AcDbEntity
  8
Default
  6
Continuous
 62
     7
 48
25.4
370
    20
100
AcDbPolyline
 90
        4
 70
     1
 43
0.0
 10
205.0245099947
 20
189.9403370125
 10
201.0245098047
 20
190.6070037109
 10
205.0245099947
 20
191.2736704092
 10
205.0245099947
 20
189.9403370125
  0
LINE
  5
3A2
330
39C
100
AcDbEntity
  8
Default
  6
Continuous
 62
     7
 48
25.4
100
AcDbLine
 10
216.6204506777
 20
238.3291831535
 30
0.0
 11
216.6204506777
 21
188.6070036159
 31
0.0
  0
LINE
  5
3A3
330
39C
100
AcDbEntity
  8
Default
  6
Continuous
 62
     7
 48
25.4
100
AcDbLine
 10
201.0245093779
 20
236.8591831535
 30
0.0
 11
201.0245093779
 21
188.6070036159
 31
0.0
  0
LINE
  5
3A4
330
39C
100
AcDbEntity
  8
Default
  6
Continuous
 62
     7
 48
25.4
100
AcDbLine
 10
216.6204506777
 20
190.6070037109
 30
0.0
 11
201.0245098047
 21
190.6070037109
 31
0.0
  0
TEXT
  5
3A5
330
39C
100
AcDbEntity
  8
Default
  6
Continuous
 62
     7
 48
25.4
100
AcDbText
 10
205.6920454586
 20
191.6070037109
 30
0.0
 40
4.0
  1
26
  7
SEACAD_arial_ttf
 11
205.6920454586
 21
195.6070037109
 31
0.0
100
AcDbText
 73
     3
  0
ENDBLK
  5
3A7
330
39C
100
AcDbEntity
  8
0
100
AcDbBlockEnd
  0
BLOCK
  5
3B1
330
3A8
100
AcDbEntity
  8
0
100
AcDbBlockBegin
  2
GDimGGroup17
 70
     0
 71
     0
 10
0.0
 20
0.0
 30
0.0
  3
GDimGGroup17
  1

  0
HATCH
  5
3AA
330
3A8
100
AcDbEntity
  8
Default
  6
Continuous
 62
     7
 48
25.4
100
AcDbHatch
 10
0.0
 20
0.0
 30
0.0
210
0.0
220
0.0
230
1.0
  2
SOLID
 70
     1
 71
     0
 91
        1
 92
        1
 93
        3
 72
     1
 10
129.8204504877032
 20
214.5147388262686
 11
133.820450677693
 21
215.1814055246002
 72
     1
 10
133.820450677693
 20
215.1814055246002
 11
129.8204504877032
 21
215.8480722229319
 72
     1
 10
129.8204504877032
 20
215.8480722229319
 11
129.8204504877032
 21
214.5147388262686
 97
        0
 75
     0
 76
     1
 98
        0
  0
LWPOLYLINE
  5
3AB
330
3A8
100
AcDbEntity
  8
Default
  6
Continuous
 62
     7
 48
25.4
370
    20
100
AcDbPolyline
 90
        4
 70
     1
 43
0.0
 10
129.8204504877
 20
214.5147388263
 10
133.8204506777
 20
215.1814055246
 10
129.8204504877
 20
215.8480722229
 10
129.8204504877
 20
214.5147388263
  0
HATCH
  5
3AC
330
3A8
100
AcDbEntity
  8
Default
  6
Continuous
 62
     7
 48
25.4
100
AcDbHatch
 10
0.0
 20
0.0
 30
0.0
210
0.0
220
0.0
230
1.0
  2
SOLID
 70
     1
 71
     0
 91
        1
 92
        1
 93
        3
 72
     1
 10
140.8204508676828
 20
214.5147388262686
 11
140.8204508676828
 21
215.8480722229319
 72
     1
 10
140.8204508676828
 20
215.8480722229319
 11
136.820450677693
 21
215.1814055246002
 72
     1
 10
136.820450677693
 20
215.1814055246002
 11
140.8204508676828
 21
214.5147388262686
 97
        0
 75
     0
 76
     1
 98
        0
  0
LWPOLYLINE
  5
3AD
330
3A8
100
AcDbEntity
  8
Default
  6
Continuous
 62
     7
 48
25.4
370
    20
100
AcDbPolyline
 90
        4
 70
     1
 43
0.0
 10
140.8204508677
 20
214.5147388263
 10
136.8204506777
 20
215.1814055246
 10
140.8204508677
 20
215.8480722229
 10
140.8204508677
 20
214.5147388263
  0
LINE
  5
3AE
330
3A8
100
AcDbEntity
  8
Default
  6
Continuous
 62
     7
 48
25.4
100
AcDbLine
 10
136.8204506777
 20
228.2791831535
 30
0.0
 11
136.8204506777
 21
213.1814054296
 31
0.0
  0
LINE
  5
3AF
330
3A8
100
AcDbEntity
  8
Default
  6
Continuous
 62
     7
 48
25.4
100
AcDbLine
 10
125.8204502977
 20
215.1814055246
 30
0.0
 11
149.866326525
 21
215.1814055246
 31
0.0
  0
TEXT
  5
3B0
330
3A8
100
AcDbEntity
  8
Default
  6
Continuous
 62
     7
 48
25.4
100
AcDbText
 10
145.3358916126
 20
216.1814055246
 30
0.0
 40
4.0
  1
5
  7
SEACAD_arial_ttf
 11
145.3358916126
 21
220.1814055246
 31
0.0
100
AcDbText
 73
     3
  0
ENDBLK
  5
3B2
330
3A8
100
AcDbEntity
  8
0
100
AcDbBlockEnd
  0
BLOCK
  5
3BF
330
3B3
100
AcDbEntity
  8
0
100
AcDbBlockBegin
  2
GDimGGroup18
 70
     0
 71
     0
 10
0.0
 20
0.0
 30
0.0
  3
GDimGGroup18
  1

  0
HATCH
  5
3B5
330
3B3
100
AcDbEntity
  8
Default
  6
Continuous
 62
     7
 48
25.4
100
AcDbHatch
 10
0.0
 20
0.0
 30
0.0
210
0.0
220
0.0
230
1.0
  2
SOLID
 70
     1
 71
     0
 91
        1
 92
        1
 93
        3
 72
     1
 10
231.0873388713549
 20
245.4591829635091
 11
230.4206721730233
 21
249.4591831534989
 72
     1
 10
230.4206721730233
 20
249.4591831534989
 11
229.7540054746917
 21
245.4591829635091
 72
     1
 10
229.7540054746917
 20
245.4591829635091
 11
231.0873388713549
 21
245.4591829635091
 97
        0
 75
     0
 76
     1
 98
        0
  0
LWPOLYLINE
  5
3B6
330
3B3
100
AcDbEntity
  8
Default
  6
Continuous
 62
     7
 48
25.4
370
    20
100
AcDbPolyline
 90
        4
 70
     1
 43
0.0
 10
231.0873388714
 20
245.4591829635
 10
230.420672173
 20
249.4591831535
 10
229.7540054747
 20
245.4591829635
 10
231.0873388714
 20
245.4591829635
  0
HATCH
  5
3B7
330
3B3
100
AcDbEntity
  8
Default
  6
Continuous
 62
     7
 48
25.4
100
AcDbHatch
 10
0.0
 20
0.0
 30
0.0
210
0.0
220
0.0
230
1.0
  2
SOLID
 70
     1
 71
     0
 91
        1
 92
        1
 93
        3
 72
     1
 10
231.0873388713549
 20
238.4591836787648
 11
229.7540054746917
 21
238.4591836787648
 72
     1
 10
229.7540054746917
 20
238.4591836787648
 11
230.4206721730233
 21
234.459183488775
 72
     1
 10
230.4206721730233
 20
234.459183488775
 11
231.0873388713549
 21
238.4591836787648
 97
        0
 75
     0
 76
     1
 98
        0
  0
LWPOLYLINE
  5
3B8
330
3B3
100
AcDbEntity
  8
Default
  6
Continuous
 62
     7
 48
25.4
370
    20
100
AcDbPolyline
 90
        4
 70
     1
 43
0.0
 10
231.0873388714
 20
238.4591836788
 10
230.420672173
 20
234.4591834888
 10
229.7540054747
 20
238.4591836788
 10
231.0873388714
 20
238.4591836788
  0
LINE
  5
3B9
330
3B3
100
AcDbEntity
  8
Default
  6
Continuous
 62
     7
 48
25.4
100
AcDbLine
 10
216.6204506777
 20
249.4591831535
 30
0.0
 11
232.420672268
 21
249.4591831535
 31
0.0
  0
LINE
  5
3BA
330
3B3
100
AcDbEntity
  8
Default
  6
Continuous
 62
     7
 48
25.4
100
AcDbLine
 10
216.6204506777
 20
234.4591831535
 30
0.0
 11
232.420672268
 21
234.4591831535
 31
0.0
  0
LINE
  5
3BB
330
3B3
100
AcDbEntity
  8
Default
  6
Continuous
 62
     7
 48
25.4
100
AcDbLine
 10
230.420672173
 20
249.4591831535
 30
0.0
 11
230.420672173
 21
234.4591834888
 31
0.0
  0
TEXT
  5
3BC
330
3B3
100
AcDbEntity
  8
Default
  6
Continuous
 62
     7
 48
25.4
100
AcDbText
 10
229.420672173
 20
242.5094502929
 30
0.0
 40
4.0
  1
25
 50
90.0
  7
SEACAD_arial_ttf
 11
225.420672173
 21
242.5094502929
 31
0.0
100
AcDbText
 73
     3
  0
TEXT
  5
3BE
330
3B3
100
AcDbEntity
  8
Default
  6
Continuous
 62
     7
 48
25.4
100
AcDbText
 10
229.420672173
 20
235.1480467841
 30
0.0
 40
4.0
  1
O
 50
90.0
  7
SEACAD_semeca1_ttf
 11
225.420672173
 21
235.1480467841
 31
0.0
100
AcDbText
 73
     3
  0
ENDBLK
  5
3C0
330
3B3
100
AcDbEntity
  8
0
100
AcDbBlockEnd
  0
BLOCK
  5
3CA
330
3C1
100
AcDbEntity
  8
0
100
AcDbBlockBegin
  2
GDimGGroup19
 70
     0
 71
     0
 10
0.0
 20
0.0
 30
0.0
  3
GDimGGroup19
  1

  0
HATCH
  5
3C3
330
3C1
100
AcDbEntity
  8
Default
  6
Continuous
 62
     7
 48
25.4
100
AcDbHatch
 10
0.0
 20
0.0
 30
0.0
210
0.0
220
0.0
230
1.0
  2
SOLID
 70
     1
 71
     0
 91
        1
 92
        1
 93
        3
 72
     1
 10
189.6603811058353
 20
278.4791833434887
 11
188.3270477091721
 21
278.4791833434887
 72
     1
 10
188.3270477091721
 20
278.4791833434887
 11
188.9937144075037
 21
274.4791831534989
 72
     1
 10
188.9937144075037
 20
274.4791831534989
 11
189.6603811058353
 21
278.4791833434887
 97
        0
 75
     0
 76
     1
 98
        0
  0
LWPOLYLINE
  5
3C4
330
3C1
100
AcDbEntity
  8
Default
  6
Continuous
 62
     7
 48
25.4
370
    20
100
AcDbPolyline
 90
        4
 70
     1
 43
0.0
 10
189.6603811058
 20
278.4791833435
 10
188.9937144075
 20
274.4791831535
 10
188.3270477092
 20
278.4791833435
 10
189.6603811058
 20
278.4791833435
  0
HATCH
  5
3C5
330
3C1
100
AcDbEntity
  8
Default
  6
Continuous
 62
     7
 48
25.4
100
AcDbHatch
 10
0.0
 20
0.0
 30
0.0
210
0.0
220
0.0
230
1.0
  2
SOLID
 70
     1
 71
     0
 91
        1
 92
        1
 93
        3
 72
     1
 10
189.6603811058353
 20
308.2791820813603
 11
188.9937144075037
 21
312.2791822713501
 72
     1
 10
188.9937144075037
 20
312.2791822713501
 11
188.3270477091721
 21
308.2791820813603
 72
     1
 10
188.3270477091721
 20
308.2791820813603
 11
189.6603811058353
 21
308.2791820813603
 97
        0
 75
     0
 76
     1
 98
        0
  0
LWPOLYLINE
  5
3C6
330
3C1
100
AcDbEntity
  8
Default
  6
Continuous
 62
     7
 48
25.4
370
    20
100
AcDbPolyline
 90
        4
 70
     1
 43
0.0
 10
189.6603811058
 20
308.2791820814
 10
188.9937144075
 20
312.2791822714
 10
188.3270477092
 20
308.2791820814
 10
189.6603811058
 20
308.2791820814
  0
LINE
  5
3C7
330
3C1
100
AcDbEntity
  8
Default
  6
Continuous
 62
     7
 48
25.4
100
AcDbLine
 10
188.9937144075
 20
274.4791831535
 30
0.0
 11
188.9937144075
 21
312.2791822714
 31
0.0
  0
TEXT
  5
3C8
330
3C1
100
AcDbEntity
  8
Default
  6
Continuous
 62
     7
 48
25.4
100
AcDbText
 10
187.9937144075
 20
293.9294496842
 30
0.0
 40
4.0
  1
63
 50
90.0
  7
SEACAD_arial_ttf
 11
183.9937144075
 21
293.9294496842
 31
0.0
100
AcDbText
 73
     3
  0
TEXT
  5
3C9
330
3C1
100
AcDbEntity
  8
Default
  6
Continuous
 62
     7
 48
25.4
100
AcDbText
 10
187.9937144075
 20
286.5680461754
 30
0.0
 40
4.0
  1
O
 50
90.0
  7
SEACAD_semeca1_ttf
 11
183.9937144075
 21
286.5680461754
 31
0.0
100
AcDbText
 73
     3
  0
ENDBLK
  5
3CB
330
3C1
100
AcDbEntity
  8
0
100
AcDbBlockEnd
  0
BLOCK
  5
3D5
330
3CC
100
AcDbEntity
  8
0
100
AcDbBlockBegin
  2
GDimGGroup20
 70
     0
 71
     0
 10
0.0
 20
0.0
 30
0.0
  3
GDimGGroup20
  1

  0
HATCH
  5
3CE
330
3CC
100
AcDbEntity
  8
Default
  6
Continuous
 62
     7
 48
25.4
100
AcDbHatch
 10
0.0
 20
0.0
 30
0.0
210
0.0
220
0.0
230
1.0
  2
SOLID
 70
     1
 71
     0
 91
        1
 92
        1
 93
        3
 72
     1
 10
145.7404508676828
 20
274.7027729323145
 11
145.7404508676828
 21
276.0361063289778
 72
     1
 10
145.7404508676828
 20
276.0361063289778
 11
141.740450677693
 21
275.3694396306462
 72
     1
 10
141.740450677693
 20
275.3694396306462
 11
145.7404508676828
 21
274.7027729323145
 97
        0
 75
     0
 76
     1
 98
        0
  0
LWPOLYLINE
  5
3CF
330
3CC
100
AcDbEntity
  8
Default
  6
Continuous
 62
     7
 48
25.4
370
    20
100
AcDbPolyline
 90
        4
 70
     1
 43
0.0
 10
145.7404508677
 20
274.7027729323
 10
141.7404506777
 20
275.3694396306
 10
145.7404508677
 20
276.036106329
 10
145.7404508677
 20
274.7027729323
  0
HATCH
  5
3D0
330
3CC
100
AcDbEntity
  8
Default
  6
Continuous
 62
     7
 48
25.4
100
AcDbHatch
 10
0.0
 20
0.0
 30
0.0
210
0.0
220
0.0
230
1.0
  2
SOLID
 70
     1
 71
     0
 91
        1
 92
        1
 93
        3
 72
     1
 10
160.5404508721531
 20
274.7027729323145
 11
164.5404510621429
 21
275.3694396306462
 72
     1
 10
164.5404510621429
 20
275.3694396306462
 11
160.5404508721531
 21
276.0361063289778
 72
     1
 10
160.5404508721531
 20
276.0361063289778
 11
160.5404508721531
 21
274.7027729323145
 97
        0
 75
     0
 76
     1
 98
        0
  0
LWPOLYLINE
  5
3D1
330
3CC
100
AcDbEntity
  8
Default
  6
Continuous
 62
     7
 48
25.4
370
    20
100
AcDbPolyline
 90
        4
 70
     1
 43
0.0
 10
160.5404508722
 20
274.7027729323
 10
164.5404510621
 20
275.3694396306
 10
160.5404508722
 20
276.036106329
 10
160.5404508722
 20
274.7027729323
  0
LINE
  5
3D2
330
3CC
100
AcDbEntity
  8
Default
  6
Continuous
 62
     7
 48
25.4
100
AcDbLine
 10
141.7404506777
 20
278.3791831535
 30
0.0
 11
141.7404506777
 21
273.3694395357
 31
0.0
  0
LINE
  5
3D3
330
3CC
100
AcDbEntity
  8
Default
  6
Continuous
 62
     7
 48
25.4
100
AcDbLine
 10
111.4558093671
 20
275.3694396306
 30
0.0
 11
164.5404510621
 21
275.3694396306
 31
0.0
  0
TEXT
  5
3D4
330
3CC
100
AcDbEntity
  8
Default
  6
Continuous
 62
     7
 48
25.4
100
AcDbText
 10
112.8558087953
 20
276.3694396306
 30
0.0
 40
4.0
  1
38
  7
SEACAD_arial_ttf
 11
112.8558087953
 21
280.3694396306
 31
0.0
100
AcDbText
 73
     3
  0
ENDBLK
  5
3D6
330
3CC
100
AcDbEntity
  8
0
100
AcDbBlockEnd
  0
BLOCK
  5
3E0
330
3D7
100
AcDbEntity
  8
0
100
AcDbBlockBegin
  2
GDimGGroup21
 70
     0
 71
     0
 10
0.0
 20
0.0
 30
0.0
  3
GDimGGroup21
  1

  0
HATCH
  5
3D9
330
3D7
100
AcDbEntity
  8
Default
  6
Continuous
 62
     7
 48
25.4
100
AcDbHatch
 10
0.0
 20
0.0
 30
0.0
210
0.0
220
0.0
230
1.0
  2
SOLID
 70
     1
 71
     0
 91
        1
 92
        1
 93
        3
 72
     1
 10
153.194967621858
 20
282.3791833434887
 11
151.8616342251947
 21
282.3791833434887
 72
     1
 10
151.8616342251947
 20
282.3791833434887
 11
152.5283009235264
 21
278.3791831534988
 72
     1
 10
152.5283009235264
 20
278.3791831534988
 11
153.194967621858
 21
282.3791833434887
 97
        0
 75
     0
 76
     1
 98
        0
  0
LWPOLYLINE
  5
3DA
330
3D7
100
AcDbEntity
  8
Default
  6
Continuous
 62
     7
 48
25.4
370
    20
100
AcDbPolyline
 90
        4
 70
     1
 43
0.0
 10
153.1949676219
 20
282.3791833435
 10
152.5283009235
 20
278.3791831535
 10
151.8616342252
 20
282.3791833435
 10
153.1949676219
 20
282.3791833435
  0
HATCH
  5
3DB
330
3D7
100
AcDbEntity
  8
Default
  6
Continuous
 62
     7
 48
25.4
100
AcDbHatch
 10
0.0
 20
0.0
 30
0.0
210
0.0
220
0.0
230
1.0
  2
SOLID
 70
     1
 71
     0
 91
        1
 92
        1
 93
        3
 72
     1
 10
153.194967621858
 20
304.3791822929568
 11
152.5283009235264
 21
308.3791824829466
 72
     1
 10
152.5283009235264
 20
308.3791824829466
 11
151.8616342251947
 21
304.3791822929568
 72
     1
 10
151.8616342251947
 20
304.3791822929568
 11
153.194967621858
 21
304.3791822929568
 97
        0
 75
     0
 76
     1
 98
        0
  0
LWPOLYLINE
  5
3DC
330
3D7
100
AcDbEntity
  8
Default
  6
Continuous
 62
     7
 48
25.4
370
    20
100
AcDbPolyline
 90
        4
 70
     1
 43
0.0
 10
153.1949676219
 20
304.379182293
 10
152.5283009235
 20
308.3791824829
 10
151.8616342252
 20
304.379182293
 10
153.1949676219
 20
304.379182293
  0
LINE
  5
3DD
330
3D7
100
AcDbEntity
  8
Default
  6
Continuous
 62
     7
 48
25.4
100
AcDbLine
 10
152.5283009235
 20
278.3791831535
 30
0.0
 11
152.5283009235
 21
308.3791824829
 31
0.0
  0
TEXT
  5
3DE
330
3D7
100
AcDbEntity
  8
Default
  6
Continuous
 62
     7
 48
25.4
100
AcDbText
 10
151.5283009235
 20
293.92944979
 30
0.0
 40
4.0
  1
50
 50
90.0
  7
SEACAD_arial_ttf
 11
147.5283009235
 21
293.92944979
 31
0.0
100
AcDbText
 73
     3
  0
TEXT
  5
3DF
330
3D7
100
AcDbEntity
  8
Default
  6
Continuous
 62
     7
 48
25.4
100
AcDbText
 10
151.5283009235
 20
286.5680462812
 30
0.0
 40
4.0
  1
O
 50
90.0
  7
SEACAD_semeca1_ttf
 11
147.5283009235
 21
286.5680462812
 31
0.0
100
AcDbText
 73
     3
  0
ENDBLK
  5
3E1
330
3D7
100
AcDbEntity
  8
0
100
AcDbBlockEnd
  0
BLOCK
  5
3ED
330
3E2
100
AcDbEntity
  8
0
100
AcDbBlockBegin
  2
GDimGGroup22
 70
     0
 71
     0
 10
0.0
 20
0.0
 30
0.0
  3
GDimGGroup22
  1

  0
HATCH
  5
3E4
330
3E2
100
AcDbEntity
  8
Default
  6
Continuous
 62
     7
 48
25.4
100
AcDbHatch
 10
0.0
 20
0.0
 30
0.0
210
0.0
220
0.0
230
1.0
  2
SOLID
 70
     1
 71
     0
 91
        1
 92
        1
 93
        3
 72
     1
 10
86.47655115479736
 20
272.4791833434886
 11
87.143217853129
 21
268.4791831534988
 72
     1
 10
87.143217853129
 20
268.4791831534988
 11
87.80988455146064
 21
272.4791833434886
 72
     1
 10
87.80988455146064
 20
272.4791833434886
 11
86.47655115479736
 21
272.4791833434886
 97
        0
 75
     0
 76
     1
 98
        0
  0
LWPOLYLINE
  5
3E5
330
3E2
100
AcDbEntity
  8
Default
  6
Continuous
 62
     7
 48
25.4
370
    20
100
AcDbPolyline
 90
        4
 70
     1
 43
0.0
 10
86.4765511548
 20
272.4791833435
 10
87.1432178531
 20
268.4791831535
 10
87.8098845515
 20
272.4791833435
 10
86.4765511548
 20
272.4791833435
  0
HATCH
  5
3E6
330
3E2
100
AcDbEntity
  8
Default
  6
Continuous
 62
     7
 48
25.4
100
AcDbHatch
 10
0.0
 20
0.0
 30
0.0
210
0.0
220
0.0
230
1.0
  2
SOLID
 70
     1
 71
     0
 91
        1
 92
        1
 93
        3
 72
     1
 10
86.47655115479736
 20
314.2791840483135
 11
87.80988455146064
 21
314.2791840483135
 72
     1
 10
87.80988455146064
 20
314.2791840483135
 11
87.143217853129
 21
318.2791842383033
 72
     1
 10
87.143217853129
 20
318.2791842383033
 11
86.47655115479736
 21
314.2791840483135
 97
        0
 75
     0
 76
     1
 98
        0
  0
LWPOLYLINE
  5
3E7
330
3E2
100
AcDbEntity
  8
Default
  6
Continuous
 62
     7
 48
25.4
370
    20
100
AcDbPolyline
 90
        4
 70
     1
 43
0.0
 10
86.4765511548
 20
314.2791840483
 10
87.1432178531
 20
318.2791842383
 10
87.8098845515
 20
314.2791840483
 10
86.4765511548
 20
314.2791840483
  0
LINE
  5
3E8
330
3E2
100
AcDbEntity
  8
Default
  6
Continuous
 62
     7
 48
25.4
100
AcDbLine
 10
142.6404506777
 20
268.4791831535
 30
0.0
 11
85.1432177581
 21
268.4791831535
 31
0.0
  0
LINE
  5
3E9
330
3E2
100
AcDbEntity
  8
Default
  6
Continuous
 62
     7
 48
25.4
100
AcDbLine
 10
142.6404506777
 20
318.2791831535
 30
0.0
 11
85.1432177581
 21
318.2791831535
 31
0.0
  0
LINE
  5
3EA
330
3E2
100
AcDbEntity
  8
Default
  6
Continuous
 62
     7
 48
25.4
100
AcDbLine
 10
87.1432178531
 20
268.4791831535
 30
0.0
 11
87.1432178531
 21
318.2791842383
 31
0.0
  0
TEXT
  5
3EB
330
3E2
100
AcDbEntity
  8
Default
  6
Continuous
 62
     7
 48
25.4
100
AcDbText
 10
86.1432178531
 20
293.9294506677
 30
0.0
 40
4.0
  1
83
 50
90.0
  7
SEACAD_arial_ttf
 11
82.1432178531
 21
293.9294506677
 31
0.0
100
AcDbText
 73
     3
  0
TEXT
  5
3EC
330
3E2
100
AcDbEntity
  8
Default
  6
Continuous
 62
     7
 48
25.4
100
AcDbText
 10
86.1432178531
 20
286.5680471589
 30
0.0
 40
4.0
  1
O
 50
90.0
  7
SEACAD_semeca1_ttf
 11
82.1432178531
 21
286.5680471589
 31
0.0
100
AcDbText
 73
     3
  0
ENDBLK
  5
3EE
330
3E2
100
AcDbEntity
  8
0
100
AcDbBlockEnd
  0
BLOCK
  5
3FA
330
3EF
100
AcDbEntity
  8
0
100
AcDbBlockBegin
  2
GDimGGroup23
 70
     0
 71
     0
 10
0.0
 20
0.0
 30
0.0
  3
GDimGGroup23
  1

  0
HATCH
  5
3F1
330
3EF
100
AcDbEntity
  8
Default
  6
Continuous
 62
     7
 48
25.4
100
AcDbHatch
 10
0.0
 20
0.0
 30
0.0
210
0.0
220
0.0
230
1.0
  2
SOLID
 70
     1
 71
     0
 91
        1
 92
        1
 93
        3
 72
     1
 10
55.20157176489146
 20
261.3791833434887
 11
55.86823846322309
 21
257.3791831534988
 72
     1
 10
55.86823846322309
 20
257.3791831534988
 11
56.53490516155472
 21
261.3791833434887
 72
     1
 10
56.53490516155472
 20
261.3791833434887
 11
55.20157176489146
 21
261.3791833434887
 97
        0
 75
     0
 76
     1
 98
        0
  0
LWPOLYLINE
  5
3F2
330
3EF
100
AcDbEntity
  8
Default
  6
Continuous
 62
     7
 48
25.4
370
    20
100
AcDbPolyline
 90
        4
 70
     1
 43
0.0
 10
55.2015717649
 20
261.3791833435
 10
55.8682384632
 20
257.3791831535
 10
56.5349051616
 20
261.3791833435
 10
55.2015717649
 20
261.3791833435
  0
HATCH
  5
3F3
330
3EF
100
AcDbEntity
  8
Default
  6
Continuous
 62
     7
 48
25.4
100
AcDbHatch
 10
0.0
 20
0.0
 30
0.0
210
0.0
220
0.0
230
1.0
  2
SOLID
 70
     1
 71
     0
 91
        1
 92
        1
 93
        3
 72
     1
 10
55.20157176489146
 20
325.3791798640675
 11
56.53490516155472
 21
325.3791798640675
 72
     1
 10
56.53490516155472
 20
325.3791798640675
 11
55.86823846322309
 21
329.3791800540573
 72
     1
 10
55.86823846322309
 20
329.3791800540573
 11
55.20157176489146
 21
325.3791798640675
 97
        0
 75
     0
 76
     1
 98
        0
  0
LWPOLYLINE
  5
3F4
330
3EF
100
AcDbEntity
  8
Default
  6
Continuous
 62
     7
 48
25.4
370
    20
100
AcDbPolyline
 90
        4
 70
     1
 43
0.0
 10
55.2015717649
 20
325.3791798641
 10
55.8682384632
 20
329.3791800541
 10
56.5349051616
 20
325.3791798641
 10
55.2015717649
 20
325.3791798641
  0
LINE
  5
3F5
330
3EF
100
AcDbEntity
  8
Default
  6
Continuous
 62
     7
 48
25.4
100
AcDbLine
 10
136.8204506777
 20
257.3791831535
 30
0.0
 11
53.8682383682
 21
257.3791831535
 31
0.0
  0
LINE
  5
3F6
330
3EF
100
AcDbEntity
  8
Default
  6
Continuous
 62
     7
 48
25.4
100
AcDbLine
 10
137.4204502222
 20
329.3791831535
 30
0.0
 11
53.8682383682
 21
329.3791831535
 31
0.0
  0
LINE
  5
3F7
330
3EF
100
AcDbEntity
  8
Default
  6
Continuous
 62
     7
 48
25.4
100
AcDbLine
 10
55.8682384632
 20
257.3791831535
 30
0.0
 11
55.8682384632
 21
329.3791800541
 31
0.0
  0
TEXT
  5
3F8
330
3EF
100
AcDbEntity
  8
Default
  6
Continuous
 62
     7
 48
25.4
100
AcDbText
 10
54.8682384632
 20
292.3642311843
 30
0.0
 40
4.0
  1
120
 50
90.0
  7
SEACAD_arial_ttf
 11
50.8682384632
 21
292.3642311843
 31
0.0
100
AcDbText
 73
     3
  0
TEXT
  5
3F9
330
3EF
100
AcDbEntity
  8
Default
  6
Continuous
 62
     7
 48
25.4
100
AcDbText
 10
54.8682384632
 20
285.0028276755
 30
0.0
 40
4.0
  1
O
 50
90.0
  7
SEACAD_semeca1_ttf
 11
50.8682384632
 21
285.0028276755
 31
0.0
100
AcDbText
 73
     3
  0
ENDBLK
  5
3FB
330
3EF
100
AcDbEntity
  8
0
100
AcDbBlockEnd
  0
BLOCK
  5
408
330
3FC
100
AcDbEntity
  8
0
100
AcDbBlockBegin
  2
GDimGGroup24
 70
     0
 71
     0
 10
0.0
 20
0.0
 30
0.0
  3
GDimGGroup24
  1

  0
HATCH
  5
3FE
330
3FC
100
AcDbEntity
  8
Default
  6
Continuous
 62
     7
 48
25.4
100
AcDbHatch
 10
0.0
 20
0.0
 30
0.0
210
0.0
220
0.0
230
1.0
  2
SOLID
 70
     1
 71
     0
 91
        1
 92
        1
 93
        3
 72
     1
 10
37.27058007950098
 20
231.3791833434887
 11
37.93724677783261
 21
227.3791831534988
 72
     1
 10
37.93724677783261
 20
227.3791831534988
 11
38.60391347616424
 21
231.3791833434887
 72
     1
 10
38.60391347616424
 20
231.3791833434887
 11
37.27058007950098
 21
231.3791833434887
 97
        0
 75
     0
 76
     1
 98
        0
  0
LWPOLYLINE
  5
3FF
330
3FC
100
AcDbEntity
  8
Default
  6
Continuous
 62
     7
 48
25.4
370
    20
100
AcDbPolyline
 90
        4
 70
     1
 43
0.0
 10
37.2705800795
 20
231.3791833435
 10
37.9372467778
 20
227.3791831535
 10
38.6039134762
 20
231.3791833435
 10
37.2705800795
 20
231.3791833435
  0
HATCH
  5
400
330
3FC
100
AcDbEntity
  8
Default
  6
Continuous
 62
     7
 48
25.4
100
AcDbHatch
 10
0.0
 20
0.0
 30
0.0
210
0.0
220
0.0
230
1.0
  2
SOLID
 70
     1
 71
     0
 91
        1
 92
        1
 93
        3
 72
     1
 10
37.27058007950098
 20
355.3791822482532
 11
38.60391347616424
 21
355.3791822482532
 72
     1
 10
38.60391347616424
 20
355.3791822482532
 11
37.93724677783261
 21
359.3791824382431
 72
     1
 10
37.93724677783261
 20
359.3791824382431
 11
37.27058007950098
 21
355.3791822482532
 97
        0
 75
     0
 76
     1
 98
        0
  0
LWPOLYLINE
  5
401
330
3FC
100
AcDbEntity
  8
Default
  6
Continuous
 62
     7
 48
25.4
370
    20
100
AcDbPolyline
 90
        4
 70
     1
 43
0.0
 10
37.2705800795
 20
355.3791822483
 10
37.9372467778
 20
359.3791824382
 10
38.6039134762
 20
355.3791822483
 10
37.2705800795
 20
355.3791822483
  0
LINE
  5
402
330
3FC
100
AcDbEntity
  8
Default
  6
Continuous
 62
     7
 48
25.4
100
AcDbLine
 10
122.7204506777
 20
227.3791831535
 30
0.0
 11
35.9372466828
 21
227.3791831535
 31
0.0
  0
LINE
  5
403
330
3FC
100
AcDbEntity
  8
Default
  6
Continuous
 62
     7
 48
25.4
100
AcDbLine
 10
129.3204506777
 20
359.3791831535
 30
0.0
 11
35.9372466828
 21
359.3791831535
 31
0.0
  0
LINE
  5
404
330
3FC
100
AcDbEntity
  8
Default
  6
Continuous
 62
     7
 48
25.4
100
AcDbLine
 10
37.9372467778
 20
227.3791831535
 30
0.0
 11
37.9372467778
 21
359.3791824382
 31
0.0
  0
TEXT
  5
405
330
3FC
100
AcDbEntity
  8
Default
  6
Continuous
 62
     7
 48
25.4
100
AcDbText
 10
36.9372467778
 20
287.599014985
 30
0.0
 40
4.0
  1
220
 50
90.0
  7
SEACAD_arial_ttf
 11
32.9372467778
 21
287.599014985
 31
0.0
100
AcDbText
 73
     3
  0
TEXT
  5
406
330
3FC
100
AcDbEntity
  8
Default
  6
Continuous
 62
     7
 48
25.4
100
AcDbText
 10
36.9372467778
 20
299.3903193329
 30
0.0
 40
4.0
  1
H6
 50
90.0
  7
SEACAD_arial_ttf
 11
32.9372467778
 21
299.3903193329
 31
0.0
100
AcDbText
 73
     3
  0
TEXT
  5
407
330
3FC
100
AcDbEntity
  8
Default
  6
Continuous
 62
     7
 48
25.4
100
AcDbText
 10
36.9372467778
 20
280.2376114763
 30
0.0
 40
4.0
  1
O
 50
90.0
  7
SEACAD_semeca1_ttf
 11
32.9372467778
 21
280.2376114763
 31
0.0
100
AcDbText
 73
     3
  0
ENDBLK
  5
409
330
3FC
100
AcDbEntity
  8
0
100
AcDbBlockEnd
  0
BLOCK
  5
415
330
40A
100
AcDbEntity
  8
0
100
AcDbBlockBegin
  2
GDimGGroup25
 70
     0
 71
     0
 10
0.0
 20
0.0
 30
0.0
  3
GDimGGroup25
  1

  0
HATCH
  5
40C
330
40A
100
AcDbEntity
  8
Default
  6
Continuous
 62
     7
 48
25.4
100
AcDbHatch
 10
0.0
 20
0.0
 30
0.0
210
0.0
220
0.0
230
1.0
  2
SOLID
 70
     1
 71
     0
 91
        1
 92
        1
 93
        3
 72
     1
 10
17.84958417648582
 20
206.1791833434886
 11
18.51625087481745
 21
202.1791831534988
 72
     1
 10
18.51625087481745
 20
202.1791831534988
 11
19.18291757314909
 21
206.1791833434886
 72
     1
 10
19.18291757314909
 20
206.1791833434886
 11
17.84958417648582
 21
206.1791833434886
 97
        0
 75
     0
 76
     1
 98
        0
  0
LWPOLYLINE
  5
40D
330
40A
100
AcDbEntity
  8
Default
  6
Continuous
 62
     7
 48
25.4
370
    20
100
AcDbPolyline
 90
        4
 70
     1
 43
0.0
 10
17.8495841765
 20
206.1791833435
 10
18.5162508748
 20
202.1791831535
 10
19.1829175731
 20
206.1791833435
 10
17.8495841765
 20
206.1791833435
  0
HATCH
  5
40E
330
40A
100
AcDbEntity
  8
Default
  6
Continuous
 62
     7
 48
25.4
100
AcDbHatch
 10
0.0
 20
0.0
 30
0.0
210
0.0
220
0.0
230
1.0
  2
SOLID
 70
     1
 71
     0
 91
        1
 92
        1
 93
        3
 72
     1
 10
17.84958417648582
 20
380.5791860391087
 11
19.18291757314909
 21
380.5791860391087
 72
     1
 10
19.18291757314909
 20
380.5791860391087
 11
18.51625087481745
 21
384.5791862290985
 72
     1
 10
18.51625087481745
 20
384.5791862290985
 11
17.84958417648582
 21
380.5791860391087
 97
        0
 75
     0
 76
     1
 98
        0
  0
LWPOLYLINE
  5
40F
330
40A
100
AcDbEntity
  8
Default
  6
Continuous
 62
     7
 48
25.4
370
    20
100
AcDbPolyline
 90
        4
 70
     1
 43
0.0
 10
17.8495841765
 20
380.5791860391
 10
18.5162508748
 20
384.5791862291
 10
19.1829175731
 20
380.5791860391
 10
17.8495841765
 20
380.5791860391
  0
LINE
  5
410
330
40A
100
AcDbEntity
  8
Default
  6
Continuous
 62
     7
 48
25.4
100
AcDbLine
 10
135.0204506777
 20
202.1791831535
 30
0.0
 11
16.5162507798
 21
202.1791831535
 31
0.0
  0
LINE
  5
411
330
40A
100
AcDbEntity
  8
Default
  6
Continuous
 62
     7
 48
25.4
100
AcDbLine
 10
135.0204506777
 20
384.5791831535
 30
0.0
 11
16.5162507798
 21
384.5791831535
 31
0.0
  0
LINE
  5
412
330
40A
100
AcDbEntity
  8
Default
  6
Continuous
 62
     7
 48
25.4
100
AcDbLine
 10
18.5162508748
 20
202.1791831535
 30
0.0
 11
18.5162508748
 21
384.5791862291
 31
0.0
  0
TEXT
  5
413
330
40A
100
AcDbEntity
  8
Default
  6
Continuous
 62
     7
 48
25.4
100
AcDbText
 10
17.5162508748
 20
292.3642342718
 30
0.0
 40
4.0
  1
304
 50
90.0
  7
SEACAD_arial_ttf
 11
13.5162508748
 21
292.3642342718
 31
0.0
100
AcDbText
 73
     3
  0
TEXT
  5
414
330
40A
100
AcDbEntity
  8
Default
  6
Continuous
 62
     7
 48
25.4
100
AcDbText
 10
17.5162508748
 20
285.002830763
 30
0.0
 40
4.0
  1
O
 50
90.0
  7
SEACAD_semeca1_ttf
 11
13.5162508748
 21
285.002830763
 31
0.0
100
AcDbText
 73
     3
  0
ENDBLK
  5
416
330
40A
100
AcDbEntity
  8
0
100
AcDbBlockEnd
  0
BLOCK
  5
423
330
417
100
AcDbEntity
  8
0
100
AcDbBlockBegin
  2
GDimGGroup26
 70
     0
 71
     0
 10
0.0
 20
0.0
 30
0.0
  3
GDimGGroup26
  1

  0
HATCH
  5
419
330
417
100
AcDbEntity
  8
Default
  6
Continuous
 62
     7
 48
25.4
100
AcDbHatch
 10
0.0
 20
0.0
 30
0.0
210
0.0
220
0.0
230
1.0
  2
SOLID
 70
     1
 71
     0
 91
        1
 92
        1
 93
        3
 72
     1
 10
265.0989603178271
 20
297.3791833434886
 11
263.7656269211637
 21
297.3791833434886
 72
     1
 10
263.7656269211637
 20
297.3791833434886
 11
264.4322936194954
 21
293.3791831534988
 72
     1
 10
264.4322936194954
 20
293.3791831534988
 11
265.0989603178271
 21
297.3791833434886
 97
        0
 75
     0
 76
     1
 98
        0
  0
LWPOLYLINE
  5
41A
330
417
100
AcDbEntity
  8
Default
  6
Continuous
 62
     7
 48
25.4
370
    20
100
AcDbPolyline
 90
        4
 70
     1
 43
0.0
 10
265.0989603178
 20
297.3791833435
 10
264.4322936195
 20
293.3791831535
 10
263.7656269212
 20
297.3791833435
 10
265.0989603178
 20
297.3791833435
  0
HATCH
  5
41B
330
417
100
AcDbEntity
  8
Default
  6
Continuous
 62
     7
 48
25.4
100
AcDbHatch
 10
0.0
 20
0.0
 30
0.0
210
0.0
220
0.0
230
1.0
  2
SOLID
 70
     1
 71
     0
 91
        1
 92
        1
 93
        3
 72
     1
 10
265.0989603178271
 20
334.0791833986229
 11
264.4322936194954
 21
338.0791835886127
 72
     1
 10
264.4322936194954
 20
338.0791835886127
 11
263.7656269211637
 21
334.0791833986229
 72
     1
 10
263.7656269211637
 20
334.0791833986229
 11
265.0989603178271
 21
334.0791833986229
 97
        0
 75
     0
 76
     1
 98
        0
  0
LWPOLYLINE
  5
41C
330
417
100
AcDbEntity
  8
Default
  6
Continuous
 62
     7
 48
25.4
370
    20
100
AcDbPolyline
 90
        4
 70
     1
 43
0.0
 10
265.0989603178
 20
334.0791833986
 10
264.4322936195
 20
338.0791835886
 10
263.7656269212
 20
334.0791833986
 10
265.0989603178
 20
334.0791833986
  0
LINE
  5
41D
330
417
100
AcDbEntity
  8
Default
  6
Continuous
 62
     7
 48
25.4
100
AcDbLine
 10
251.4562516245
 20
293.3791831535
 30
0.0
 11
266.4322937145
 21
293.3791831535
 31
0.0
  0
LINE
  5
41E
330
417
100
AcDbEntity
  8
Default
  6
Continuous
 62
     7
 48
25.4
100
AcDbLine
 10
213.9204506777
 20
338.0791831535
 30
0.0
 11
266.4322937145
 21
338.0791831535
 31
0.0
  0
LINE
  5
41F
330
417
100
AcDbEntity
  8
Default
  6
Continuous
 62
     7
 48
25.4
100
AcDbLine
 10
264.4322936195
 20
264.1845096302
 30
0.0
 11
264.4322936195
 21
338.0791835886
 31
0.0
  0
TEXT
  5
420
330
417
100
AcDbEntity
  8
Default
  6
Continuous
 62
     7
 48
25.4
100
AcDbText
 10
257.4322936195
 20
280.2975530409
 30
0.0
 40
4.0
  1
74.5
 50
90.0
  7
SEACAD_arial_ttf
 11
253.4322936195
 21
280.2975530409
 31
0.0
100
AcDbText
 73
     3
  0
TEXT
  5
421
330
417
100
AcDbEntity
  8
Default
  6
Continuous
 62
     7
 48
25.4
100
AcDbText
 10
257.4322936195
 20
265.5845095627
 30
0.0
 40
4.0
  1
MAX
 50
90.0
  7
SEACAD_arial_ttf
 11
253.4322936195
 21
265.5845095627
 31
0.0
100
AcDbText
 73
     3
  0
TEXT
  5
422
330
417
100
AcDbEntity
  8
Default
  6
Continuous
 62
     7
 48
25.4
100
AcDbText
 10
263.4322936195
 20
265.5845095627
 30
0.0
 40
4.0
  1
MIN 57
 50
90.0
  7
SEACAD_arial_ttf
 11
259.4322936195
 21
265.5845095627
 31
0.0
100
AcDbText
 73
     3
  0
ENDBLK
  5
424
330
417
100
AcDbEntity
  8
0
100
AcDbBlockEnd
  0
BLOCK
  5
431
330
425
100
AcDbEntity
  8
0
100
AcDbBlockBegin
  2
GDimGGroup27
 70
     0
 71
     0
 10
0.0
 20
0.0
 30
0.0
  3
GDimGGroup27
  1

  0
HATCH
  5
427
330
425
100
AcDbEntity
  8
Default
  6
Continuous
 62
     7
 48
25.4
100
AcDbHatch
 10
0.0
 20
0.0
 30
0.0
210
0.0
220
0.0
230
1.0
  2
SOLID
 70
     1
 71
     0
 91
        1
 92
        1
 93
        3
 72
     1
 10
287.4021109363388
 20
334.079182963509
 11
286.7354442380071
 21
338.0791831534988
 72
     1
 10
286.7354442380071
 20
338.0791831534988
 11
286.0687775396755
 21
334.079182963509
 72
     1
 10
286.0687775396755
 20
334.079182963509
 11
287.4021109363388
 21
334.079182963509
 97
        0
 75
     0
 76
     1
 98
        0
  0
LWPOLYLINE
  5
428
330
425
100
AcDbEntity
  8
Default
  6
Continuous
 62
     7
 48
25.4
370
    20
100
AcDbPolyline
 90
        4
 70
     1
 43
0.0
 10
287.4021109363
 20
334.0791829635
 10
286.735444238
 20
338.0791831535
 10
286.0687775397
 20
334.0791829635
 10
287.4021109363
 20
334.0791829635
  0
HATCH
  5
429
330
425
100
AcDbEntity
  8
Default
  6
Continuous
 62
     7
 48
25.4
100
AcDbHatch
 10
0.0
 20
0.0
 30
0.0
210
0.0
220
0.0
230
1.0
  2
SOLID
 70
     1
 71
     0
 91
        1
 92
        1
 93
        3
 72
     1
 10
287.4021109363388
 20
350.2129280530457
 11
286.0687775396755
 21
350.2129280530457
 72
     1
 10
286.0687775396755
 20
350.2129280530457
 11
286.7354442380071
 21
346.2129278630559
 72
     1
 10
286.7354442380071
 20
346.2129278630559
 11
287.4021109363388
 21
350.2129280530457
 97
        0
 75
     0
 76
     1
 98
        0
  0
LWPOLYLINE
  5
42A
330
425
100
AcDbEntity
  8
Default
  6
Continuous
 62
     7
 48
25.4
370
    20
100
AcDbPolyline
 90
        4
 70
     1
 43
0.0
 10
287.4021109363
 20
350.212928053
 10
286.735444238
 20
346.2129278631
 10
286.0687775397
 20
350.212928053
 10
287.4021109363
 20
350.212928053
  0
LINE
  5
42B
330
425
100
AcDbEntity
  8
Default
  6
Continuous
 62
     7
 48
25.4
100
AcDbLine
 10
213.9204506777
 20
338.0791831535
 30
0.0
 11
288.735444333
 21
338.0791831535
 31
0.0
  0
LINE
  5
42C
330
425
100
AcDbEntity
  8
Default
  6
Continuous
 62
     7
 48
25.4
100
AcDbLine
 10
250.9846813107
 20
346.2129278631
 30
0.0
 11
288.735444333
 21
346.2129278631
 31
0.0
  0
LINE
  5
42D
330
425
100
AcDbEntity
  8
Default
  6
Continuous
 62
     7
 48
25.4
100
AcDbLine
 10
286.735444238
 20
277.1751906496
 30
0.0
 11
286.735444238
 21
354.2129274231
 31
0.0
  0
TEXT
  5
42E
330
425
100
AcDbEntity
  8
Default
  6
Continuous
 62
     7
 48
25.4
100
AcDbText
 10
279.735444238
 20
293.2882344646
 30
0.0
 40
4.0
  1
38.25
 50
90.0
  7
SEACAD_arial_ttf
 11
275.735444238
 21
293.2882344646
 31
0.0
100
AcDbText
 73
     3
  0
TEXT
  5
42F
330
425
100
AcDbEntity
  8
Default
  6
Continuous
 62
     7
 48
25.4
100
AcDbText
 10
279.735444238
 20
278.5751909864
 30
0.0
 40
4.0
  1
MAX
 50
90.0
  7
SEACAD_arial_ttf
 11
275.735444238
 21
278.5751909864
 31
0.0
100
AcDbText
 73
     3
  0
TEXT
  5
430
330
425
100
AcDbEntity
  8
Default
  6
Continuous
 62
     7
 48
25.4
100
AcDbText
 10
285.735444238
 20
278.5751909864
 30
0.0
 40
4.0
  1
MIN 12.75
 50
90.0
  7
SEACAD_arial_ttf
 11
281.735444238
 21
278.5751909864
 31
0.0
100
AcDbText
 73
     3
  0
ENDBLK
  5
432
330
425
100
AcDbEntity
  8
0
100
AcDbBlockEnd
  0
BLOCK
  5
43D
330
433
100
AcDbEntity
  8
0
100
AcDbBlockBegin
  2
GDimGGroup28
 70
     0
 71
     0
 10
0.0
 20
0.0
 30
0.0
  3
GDimGGroup28
  1

  0
HATCH
  5
435
330
433
100
AcDbEntity
  8
Default
  6
Continuous
 62
     7
 48
25.4
100
AcDbHatch
 10
0.0
 20
0.0
 30
0.0
210
0.0
220
0.0
230
1.0
  2
SOLID
 70
     1
 71
     0
 91
        1
 92
        1
 93
        3
 72
     1
 10
287.4044491194803
 20
350.2129280530457
 11
286.071115722817
 21
350.2129280530457
 72
     1
 10
286.071115722817
 20
350.2129280530457
 11
286.7377824211486
 21
346.2129278630559
 72
     1
 10
286.7377824211486
 20
346.2129278630559
 11
287.4044491194803
 21
350.2129280530457
 97
        0
 75
     0
 76
     1
 98
        0
  0
LWPOLYLINE
  5
436
330
433
100
AcDbEntity
  8
Default
  6
Continuous
 62
     7
 48
25.4
370
    20
100
AcDbPolyline
 90
        4
 70
     1
 43
0.0
 10
287.4044491195
 20
350.212928053
 10
286.7377824211
 20
346.2129278631
 10
286.0711157228
 20
350.212928053
 10
287.4044491195
 20
350.212928053
  0
HATCH
  5
437
330
433
100
AcDbEntity
  8
Default
  6
Continuous
 62
     7
 48
25.4
100
AcDbHatch
 10
0.0
 20
0.0
 30
0.0
210
0.0
220
0.0
230
1.0
  2
SOLID
 70
     1
 71
     0
 91
        1
 92
        1
 93
        3
 72
     1
 10
287.4044491194803
 20
360.1769294180517
 11
286.7377824211486
 21
364.1769296080415
 72
     1
 10
286.7377824211486
 20
364.1769296080415
 11
286.071115722817
 21
360.1769294180517
 72
     1
 10
286.071115722817
 20
360.1769294180517
 11
287.4044491194803
 21
360.1769294180517
 97
        0
 75
     0
 76
     1
 98
        0
  0
LWPOLYLINE
  5
438
330
433
100
AcDbEntity
  8
Default
  6
Continuous
 62
     7
 48
25.4
370
    20
100
AcDbPolyline
 90
        4
 70
     1
 43
0.0
 10
287.4044491195
 20
360.1769294181
 10
286.7377824211
 20
364.176929608
 10
286.0711157228
 20
360.1769294181
 10
287.4044491195
 20
360.1769294181
  0
LINE
  5
439
330
433
100
AcDbEntity
  8
Default
  6
Continuous
 62
     7
 48
25.4
100
AcDbLine
 10
250.9846813107
 20
346.2129278631
 30
0.0
 11
288.7377825161
 21
346.2129278631
 31
0.0
  0
LINE
  5
43A
330
433
100
AcDbEntity
  8
Default
  6
Continuous
 62
     7
 48
25.4
100
AcDbLine
 10
251.2588682945
 20
364.1769303283
 30
0.0
 11
288.7377825161
 21
364.1769303283
 31
0.0
  0
LINE
  5
43B
330
433
100
AcDbEntity
  8
Default
  6
Continuous
 62
     7
 48
25.4
100
AcDbLine
 10
286.7377824211
 20
346.2129278631
 30
0.0
 11
286.7377824211
 21
364.176929608
 31
0.0
  0
TEXT
  5
43C
330
433
100
AcDbEntity
  8
Default
  6
Continuous
 62
     7
 48
25.4
100
AcDbText
 10
285.7377824211
 20
352.0644939529
 30
0.0
 40
4.0
  1
30
 50
90.0
  7
SEACAD_arial_ttf
 11
281.7377824211
 21
352.0644939529
 31
0.0
100
AcDbText
 73
     3
  0
ENDBLK
  5
43E
330
433
100
AcDbEntity
  8
0
100
AcDbBlockEnd
  0
BLOCK
  5
449
330
43F
100
AcDbEntity
  8
0
100
AcDbBlockBegin
  2
GDimGGroup29
 70
     0
 71
     0
 10
0.0
 20
0.0
 30
0.0
  3
GDimGGroup29
  1

  0
HATCH
  5
441
330
43F
100
AcDbEntity
  8
Default
  6
Continuous
 62
     7
 48
25.4
100
AcDbHatch
 10
0.0
 20
0.0
 30
0.0
210
0.0
220
0.0
230
1.0
  2
SOLID
 70
     1
 71
     0
 91
        1
 92
        1
 93
        3
 72
     1
 10
287.402107804445
 20
368.1769305183095
 11
286.0687744077817
 21
368.1769305183095
 72
     1
 10
286.0687744077817
 20
368.1769305183095
 11
286.7354411061133
 21
364.1769303283197
 72
     1
 10
286.7354411061133
 20
364.1769303283197
 11
287.402107804445
 21
368.1769305183095
 97
        0
 75
     0
 76
     1
 98
        0
  0
LWPOLYLINE
  5
442
330
43F
100
AcDbEntity
  8
Default
  6
Continuous
 62
     7
 48
25.4
370
    20
100
AcDbPolyline
 90
        4
 70
     1
 43
0.0
 10
287.4021078044
 20
368.1769305183
 10
286.7354411061
 20
364.1769303283
 10
286.0687744078
 20
368.1769305183
 10
287.4021078044
 20
368.1769305183
  0
HATCH
  5
443
330
43F
100
AcDbEntity
  8
Default
  6
Continuous
 62
     7
 48
25.4
100
AcDbHatch
 10
0.0
 20
0.0
 30
0.0
210
0.0
220
0.0
230
1.0
  2
SOLID
 70
     1
 71
     0
 91
        1
 92
        1
 93
        3
 72
     1
 10
287.402107804445
 20
372.7791830240291
 11
286.7354411061133
 21
376.7791832140189
 72
     1
 10
286.7354411061133
 20
376.7791832140189
 11
286.0687744077817
 21
372.7791830240291
 72
     1
 10
286.0687744077817
 20
372.7791830240291
 11
287.402107804445
 21
372.7791830240291
 97
        0
 75
     0
 76
     1
 98
        0
  0
LWPOLYLINE
  5
444
330
43F
100
AcDbEntity
  8
Default
  6
Continuous
 62
     7
 48
25.4
370
    20
100
AcDbPolyline
 90
        4
 70
     1
 43
0.0
 10
287.4021078044
 20
372.779183024
 10
286.7354411061
 20
376.779183214
 10
286.0687744078
 20
372.779183024
 10
287.4021078044
 20
372.779183024
  0
LINE
  5
445
330
43F
100
AcDbEntity
  8
Default
  6
Continuous
 62
     7
 48
25.4
100
AcDbLine
 10
251.2588682945
 20
364.1769303283
 30
0.0
 11
288.7354412011
 21
364.1769303283
 31
0.0
  0
LINE
  5
446
330
43F
100
AcDbEntity
  8
Default
  6
Continuous
 62
     7
 48
25.4
100
AcDbLine
 10
247.8204506758
 20
376.7791831535
 30
0.0
 11
288.7354412011
 21
376.7791831535
 31
0.0
  0
LINE
  5
447
330
43F
100
AcDbEntity
  8
Default
  6
Continuous
 62
     7
 48
25.4
100
AcDbLine
 10
286.7354411061
 20
364.1769303283
 30
0.0
 11
286.7354411061
 21
376.779183214
 31
0.0
  0
TEXT
  5
448
330
43F
100
AcDbEntity
  8
Default
  6
Continuous
 62
     7
 48
25.4
100
AcDbText
 10
285.7354411061
 20
367.3476219886
 30
0.0
 40
4.0
  1
21
 50
90.0
  7
SEACAD_arial_ttf
 11
281.7354411061
 21
367.3476219886
 31
0.0
100
AcDbText
 73
     3
  0
ENDBLK
  5
44A
330
43F
100
AcDbEntity
  8
0
100
AcDbBlockEnd
  0
BLOCK
  5
455
330
44B
100
AcDbEntity
  8
0
100
AcDbBlockBegin
  2
GDimGGroup30
 70
     0
 71
     0
 10
0.0
 20
0.0
 30
0.0
  3
GDimGGroup30
  1

  0
HATCH
  5
44D
330
44B
100
AcDbEntity
  8
Default
  6
Continuous
 62
     7
 48
25.4
100
AcDbHatch
 10
0.0
 20
0.0
 30
0.0
210
0.0
220
0.0
230
1.0
  2
SOLID
 70
     1
 71
     0
 91
        1
 92
        1
 93
        3
 72
     1
 10
170.3031918928972
 20
380.579182963509
 11
171.6365252895604
 21
380.579182963509
 72
     1
 10
171.6365252895604
 20
380.579182963509
 11
170.9698585912288
 21
384.5791831534988
 72
     1
 10
170.9698585912288
 20
384.5791831534988
 11
170.3031918928972
 21
380.579182963509
 97
        0
 75
     0
 76
     1
 98
        0
  0
LWPOLYLINE
  5
44E
330
44B
100
AcDbEntity
  8
Default
  6
Continuous
 62
     7
 48
25.4
370
    20
100
AcDbPolyline
 90
        4
 70
     1
 43
0.0
 10
170.3031918929
 20
380.5791829635
 10
170.9698585912
 20
384.5791831535
 10
171.6365252896
 20
380.5791829635
 10
170.3031918929
 20
380.5791829635
  0
HATCH
  5
44F
330
44B
100
AcDbEntity
  8
Default
  6
Continuous
 62
     7
 48
25.4
100
AcDbHatch
 10
0.0
 20
0.0
 30
0.0
210
0.0
220
0.0
230
1.0
  2
SOLID
 70
     1
 71
     0
 91
        1
 92
        1
 93
        3
 72
     1
 10
170.3031918928972
 20
391.5791833434887
 11
170.9698585912288
 21
387.5791831534989
 72
     1
 10
170.9698585912288
 20
387.5791831534989
 11
171.6365252895604
 21
391.5791833434887
 72
     1
 10
171.6365252895604
 20
391.5791833434887
 11
170.3031918928972
 21
391.5791833434887
 97
        0
 75
     0
 76
     1
 98
        0
  0
LWPOLYLINE
  5
450
330
44B
100
AcDbEntity
  8
Default
  6
Continuous
 62
     7
 48
25.4
370
    20
100
AcDbPolyline
 90
        4
 70
     1
 43
0.0
 10
170.3031918929
 20
391.5791833435
 10
170.9698585912
 20
387.5791831535
 10
171.6365252896
 20
391.5791833435
 10
170.3031918929
 20
391.5791833435
  0
LINE
  5
451
330
44B
100
AcDbEntity
  8
Default
  6
Continuous
 62
     7
 48
25.4
100
AcDbLine
 10
188.1204506758
 20
387.5791831535
 30
0.0
 11
168.9698584962
 21
387.5791831535
 31
0.0
  0
LINE
  5
452
330
44B
100
AcDbEntity
  8
Default
  6
Continuous
 62
     7
 48
25.4
100
AcDbLine
 10
170.9698585912
 20
360.1917900067
 30
0.0
 11
170.9698585912
 21
395.5791830939
 31
0.0
  0
TEXT
  5
453
330
44B
100
AcDbEntity
  8
Default
  6
Continuous
 62
     7
 48
25.4
100
AcDbText
 10
169.9698585912
 20
376.3048339492
 30
0.0
 40
4.0
  1
5
 50
90.0
  7
SEACAD_arial_ttf
 11
165.9698585912
 21
376.3048339492
 31
0.0
100
AcDbText
 73
     3
  0
TEXT
  5
454
330
44B
100
AcDbEntity
  8
Default
  6
Continuous
 62
     7
 48
25.4
100
AcDbText
 10
169.9698585912
 20
361.591790471
 30
0.0
 40
4.0
  1
MAX
 50
90.0
  7
SEACAD_arial_ttf
 11
165.9698585912
 21
361.591790471
 31
0.0
100
AcDbText
 73
     3
  0
ENDBLK
  5
456
330
44B
100
AcDbEntity
  8
0
100
AcDbBlockEnd
  0
BLOCK
  5
461
330
457
100
AcDbEntity
  8
0
100
AcDbBlockBegin
  2
GDimGGroup31
 70
     0
 71
     0
 10
0.0
 20
0.0
 30
0.0
  3
GDimGGroup31
  1

  0
HATCH
  5
459
330
457
100
AcDbEntity
  8
Default
  6
Continuous
 62
     7
 48
25.4
100
AcDbHatch
 10
0.0
 20
0.0
 30
0.0
210
0.0
220
0.0
230
1.0
  2
SOLID
 70
     1
 71
     0
 91
        1
 92
        1
 93
        3
 72
     1
 10
243.820450485851
 20
397.4019673477249
 11
243.820450485851
 21
396.0686339510616
 72
     1
 10
243.820450485851
 20
396.0686339510616
 11
247.8204506758409
 21
396.7353006493933
 72
     1
 10
247.8204506758409
 20
396.7353006493933
 11
243.820450485851
 21
397.4019673477249
 97
        0
 75
     0
 76
     1
 98
        0
  0
LWPOLYLINE
  5
45A
330
457
100
AcDbEntity
  8
Default
  6
Continuous
 62
     7
 48
25.4
370
    20
100
AcDbPolyline
 90
        4
 70
     1
 43
0.0
 10
243.8204504859
 20
397.4019673477
 10
247.8204506758
 20
396.7353006494
 10
243.8204504859
 20
396.0686339511
 10
243.8204504859
 20
397.4019673477
  0
HATCH
  5
45B
330
457
100
AcDbEntity
  8
Default
  6
Continuous
 62
     7
 48
25.4
100
AcDbHatch
 10
0.0
 20
0.0
 30
0.0
210
0.0
220
0.0
230
1.0
  2
SOLID
 70
     1
 71
     0
 91
        1
 92
        1
 93
        3
 72
     1
 10
220.6204517122166
 20
397.4019673477249
 11
216.6204515222268
 21
396.7353006493933
 72
     1
 10
216.6204515222268
 20
396.7353006493933
 11
220.6204517122166
 21
396.0686339510616
 72
     1
 10
220.6204517122166
 20
396.0686339510616
 11
220.6204517122166
 21
397.4019673477249
 97
        0
 75
     0
 76
     1
 98
        0
  0
LWPOLYLINE
  5
45C
330
457
100
AcDbEntity
  8
Default
  6
Continuous
 62
     7
 48
25.4
370
    20
100
AcDbPolyline
 90
        4
 70
     1
 43
0.0
 10
220.6204517122
 20
397.4019673477
 10
216.6204515222
 20
396.7353006494
 10
220.6204517122
 20
396.0686339511
 10
220.6204517122
 20
397.4019673477
  0
LINE
  5
45D
330
457
100
AcDbEntity
  8
Default
  6
Continuous
 62
     7
 48
25.4
100
AcDbLine
 10
247.8204506758
 20
376.7791831535
 30
0.0
 11
247.8204506758
 21
398.7353007444
 31
0.0
  0
LINE
  5
45E
330
457
100
AcDbEntity
  8
Default
  6
Continuous
 62
     7
 48
25.4
100
AcDbLine
 10
216.6204506777
 20
383.3791831535
 30
0.0
 11
216.6204506777
 21
398.7353007444
 31
0.0
  0
LINE
  5
45F
330
457
100
AcDbEntity
  8
Default
  6
Continuous
 62
     7
 48
25.4
100
AcDbLine
 10
247.8204506758
 20
396.7353006494
 30
0.0
 11
216.6204515222
 21
396.7353006494
 31
0.0
  0
TEXT
  5
460
330
457
100
AcDbEntity
  8
Default
  6
Continuous
 62
     7
 48
25.4
100
AcDbText
 10
229.0900163164
 20
397.7353006494
 30
0.0
 40
4.0
  1
52
  7
SEACAD_arial_ttf
 11
229.0900163164
 21
401.7353006494
 31
0.0
100
AcDbText
 73
     3
  0
ENDBLK
  5
462
330
457
100
AcDbEntity
  8
0
100
AcDbBlockEnd
  0
BLOCK
  5
46D
330
463
100
AcDbEntity
  8
0
100
AcDbBlockBegin
  2
GDimGGroup32
 70
     0
 71
     0
 10
0.0
 20
0.0
 30
0.0
  3
GDimGGroup32
  1

  0
HATCH
  5
465
330
463
100
AcDbEntity
  8
Default
  6
Continuous
 62
     7
 48
25.4
100
AcDbHatch
 10
0.0
 20
0.0
 30
0.0
210
0.0
220
0.0
230
1.0
  2
SOLID
 70
     1
 71
     0
 91
        1
 92
        1
 93
        3
 72
     1
 10
71.46456185216218
 20
265.4666833434887
 11
72.13122855049382
 21
261.4666831534989
 72
     1
 10
72.1312285504938
 20
261.4666831534989
 11
72.79789524882544
 21
265.4666833434887
 72
     1
 10
72.79789524882544
 20
265.4666833434887
 11
71.46456185216216
 21
265.4666833434887
 97
        0
 75
     0
 76
     1
 98
        0
  0
LWPOLYLINE
  5
466
330
463
100
AcDbEntity
  8
Default
  6
Continuous
 62
     7
 48
25.4
370
    20
100
AcDbPolyline
 90
        4
 70
     1
 43
0.0
 10
71.4645618522
 20
265.4666833435
 10
72.1312285505
 20
261.4666831535
 10
72.7978952488
 20
265.4666833435
 10
71.4645618522
 20
265.4666833435
  0
HATCH
  5
467
330
463
100
AcDbEntity
  8
Default
  6
Continuous
 62
     7
 48
25.4
100
AcDbHatch
 10
0.0
 20
0.0
 30
0.0
210
0.0
220
0.0
230
1.0
  2
SOLID
 70
     1
 71
     0
 91
        1
 92
        1
 93
        3
 72
     1
 10
71.46456185216218
 20
321.2916793157048
 11
72.79789524882546
 21
321.2916793157048
 72
     1
 10
72.79789524882544
 20
321.2916793157048
 11
72.1312285504938
 21
325.2916795056946
 72
     1
 10
72.1312285504938
 20
325.2916795056946
 11
71.46456185216216
 21
321.2916793157048
 97
        0
 75
     0
 76
     1
 98
        0
  0
LWPOLYLINE
  5
468
330
463
100
AcDbEntity
  8
Default
  6
Continuous
 62
     7
 48
25.4
370
    20
100
AcDbPolyline
 90
        4
 70
     1
 43
0.0
 10
71.4645618522
 20
321.2916793157
 10
72.1312285505
 20
325.2916795057
 10
72.7978952488
 20
321.2916793157
 10
71.4645618522
 20
321.2916793157
  0
LINE
  5
469
330
463
100
AcDbEntity
  8
Default
  6
Continuous
 62
     7
 48
25.4
100
AcDbLine
 10
121.8204506777
 20
261.4666831535
 30
0.0
 11
70.1312284555
 21
261.4666831535
 31
0.0
  0
LINE
  5
46A
330
463
100
AcDbEntity
  8
Default
  6
Continuous
 62
     7
 48
25.4
100
AcDbLine
 10
121.8204506777
 20
325.2916831535
 30
0.0
 11
70.1312284555
 21
325.2916831535
 31
0.0
  0
LINE
  5
46B
330
463
100
AcDbEntity
  8
Default
  6
Continuous
 62
     7
 48
25.4
100
AcDbLine
 10
72.1312285505
 20
261.4666831535
 30
0.0
 11
72.1312285505
 21
325.2916795057
 31
0.0
  0
TEXT
  5
46C
330
463
100
AcDbEntity
  8
Default
  6
Continuous
 62
     7
 48
25.4
100
AcDbText
 10
71.1312285505
 20
283.2052682861
 30
0.0
 40
4.0
  1
106.375
 50
90.0
  7
SEACAD_arial_ttf
 11
67.1312285505
 21
283.2052682861
 31
0.0
100
AcDbText
 73
     3
  0
ENDBLK
  5
46E
330
463
100
AcDbEntity
  8
0
100
AcDbBlockEnd
  0
BLOCK
  5
479
330
46F
100
AcDbEntity
  8
0
100
AcDbBlockBegin
  2
GDimGGroup33
 70
     0
 71
     0
 10
0.0
 20
0.0
 30
0.0
  3
GDimGGroup33
  1

  0
HATCH
  5
471
330
46F
100
AcDbEntity
  8
Default
  6
Continuous
 62
     7
 48
25.4
100
AcDbHatch
 10
0.0
 20
0.0
 30
0.0
210
0.0
220
0.0
230
1.0
  2
SOLID
 70
     1
 71
     0
 91
        1
 92
        1
 93
        3
 72
     1
 10
137.7404504877032
 20
303.8125758427518
 11
137.7404504877032
 21
302.4792424460885
 72
     1
 10
137.7404504877032
 20
302.4792424460885
 11
141.740450677693
 21
303.1459091444201
 72
     1
 10
141.740450677693
 20
303.1459091444201
 11
137.7404504877032
 21
303.8125758427518
 97
        0
 75
     0
 76
     1
 98
        0
  0
LWPOLYLINE
  5
472
330
46F
100
AcDbEntity
  8
Default
  6
Continuous
 62
     7
 48
25.4
370
    20
100
AcDbPolyline
 90
        4
 70
     1
 43
0.0
 10
137.7404504877
 20
303.8125758428
 10
141.7404506777
 20
303.1459091444
 10
137.7404504877
 20
302.4792424461
 10
137.7404504877
 20
303.8125758428
  0
HATCH
  5
473
330
46F
100
AcDbEntity
  8
Default
  6
Continuous
 62
     7
 48
25.4
100
AcDbHatch
 10
0.0
 20
0.0
 30
0.0
210
0.0
220
0.0
230
1.0
  2
SOLID
 70
     1
 71
     0
 91
        1
 92
        1
 93
        3
 72
     1
 10
125.8204508676828
 20
303.8125758427518
 11
121.820450677693
 21
303.1459091444201
 72
     1
 10
121.820450677693
 20
303.1459091444201
 11
125.8204508676828
 21
302.4792424460885
 72
     1
 10
125.8204508676828
 20
302.4792424460885
 11
125.8204508676828
 21
303.8125758427518
 97
        0
 75
     0
 76
     1
 98
        0
  0
LWPOLYLINE
  5
474
330
46F
100
AcDbEntity
  8
Default
  6
Continuous
 62
     7
 48
25.4
370
    20
100
AcDbPolyline
 90
        4
 70
     1
 43
0.0
 10
125.8204508677
 20
303.8125758428
 10
121.8204506777
 20
303.1459091444
 10
125.8204508677
 20
302.4792424461
 10
125.8204508677
 20
303.8125758428
  0
LINE
  5
475
330
46F
100
AcDbEntity
  8
Default
  6
Continuous
 62
     7
 48
25.4
100
AcDbLine
 10
141.7404506777
 20
303.1459091444
 30
0.0
 11
91.6166361843
 21
303.1459091444
 31
0.0
  0
TEXT
  5
476
330
46F
100
AcDbEntity
  8
Default
  6
Continuous
 62
     7
 48
25.4
100
AcDbText
 10
107.729680701
 20
310.1459091444
 30
0.0
 40
4.0
  1
33.2
  7
SEACAD_arial_ttf
 11
107.729680701
 21
314.1459091444
 31
0.0
100
AcDbText
 73
     3
  0
TEXT
  5
477
330
46F
100
AcDbEntity
  8
Default
  6
Continuous
 62
     7
 48
25.4
100
AcDbText
 10
93.0166372227
 20
310.1459091444
 30
0.0
 40
4.0
  1
MAX
  7
SEACAD_arial_ttf
 11
93.0166372227
 21
314.1459091444
 31
0.0
100
AcDbText
 73
     3
  0
TEXT
  5
478
330
46F
100
AcDbEntity
  8
Default
  6
Continuous
 62
     7
 48
25.4
100
AcDbText
 10
93.0166372227
 20
304.1459091444
 30
0.0
 40
4.0
  1
MIN 8.2
  7
SEACAD_arial_ttf
 11
93.0166372227
 21
308.1459091444
 31
0.0
100
AcDbText
 73
     3
  0
ENDBLK
  5
47A
330
46F
100
AcDbEntity
  8
0
100
AcDbBlockEnd
  0
BLOCK
  5
487
330
47B
100
AcDbEntity
  8
0
100
AcDbBlockBegin
  2
GDimGGroup34
 70
     0
 71
     0
 10
0.0
 20
0.0
 30
0.0
  3
GDimGGroup34
  1

  0
HATCH
  5
47D
330
47B
100
AcDbEntity
  8
Default
  6
Continuous
 62
     7
 48
25.4
100
AcDbHatch
 10
0.0
 20
0.0
 30
0.0
210
0.0
220
0.0
230
1.0
  2
SOLID
 70
     1
 71
     0
 91
        1
 92
        1
 93
        3
 72
     1
 10
72.4903853644343
 20
335.4024566086058
 11
72.50143808877587
 21
331.3472964583938
 72
     1
 10
72.50143808877587
 20
331.3472964583938
 11
73.80616988473776
 21
335.1868434300024
 72
     1
 10
73.80616988473776
 20
335.1868434300024
 11
72.4903853644343
 21
335.4024566086058
 97
        0
 75
     0
 76
     1
 98
        0
  0
LWPOLYLINE
  5
47E
330
47B
100
AcDbEntity
  8
Default
  6
Continuous
 62
     7
 48
25.4
370
    20
100
AcDbPolyline
 90
        4
 70
     1
 43
0.0
 10
72.4903853644
 20
335.4024566086
 10
72.5014380888
 20
331.3472964584
 10
73.8061698847
 20
335.18684343
 10
72.4903853644
 20
335.4024566086
  0
HATCH
  5
47F
330
47B
100
AcDbEntity
  8
Default
  6
Continuous
 62
     7
 48
25.4
100
AcDbHatch
 10
0.0
 20
0.0
 30
0.0
210
0.0
220
0.0
230
1.0
  2
SOLID
 70
     1
 71
     0
 91
        1
 92
        1
 93
        3
 72
     1
 10
72.95814437462285
 20
321.3217487770701
 11
72.13106091243037
 21
325.2916831534988
 72
     1
 10
72.13106091243037
 20
325.2916831534988
 11
71.62589087620312
 21
321.2680965394092
 72
     1
 10
71.62589087620312
 20
321.2680965394093
 11
72.95814437462285
 21
321.3217487770701
 97
        0
 75
     0
 76
     1
 98
        0
  0
LWPOLYLINE
  5
480
330
47B
100
AcDbEntity
  8
Default
  6
Continuous
 62
     7
 48
25.4
370
    20
100
AcDbPolyline
 90
        4
 70
     1
 43
0.0
 10
72.9581443746
 20
321.3217487771
 10
72.1310609124
 20
325.2916831535
 10
71.6258908762
 20
321.2680965394
 10
72.9581443746
 20
321.3217487771
  0
LINE
  5
481
330
47B
100
AcDbEntity
  8
Default
  6
Continuous
 62
     7
 48
25.4
100
AcDbLine
 10
121.8204506777
 20
325.2916831535
 30
0.0
 11
70.5163454601
 21
331.5910351852
 31
0.0
  0
LINE
  5
482
330
47B
100
AcDbEntity
  8
Default
  6
Continuous
 62
     7
 48
25.4
100
AcDbLine
 10
121.8204506777
 20
325.2916831535
 30
0.0
 11
70.1310605846
 21
325.2916831535
 31
0.0
  0
ARC
  5
483
330
47B
100
AcDbEntity
  8
Default
  6
Continuous
 62
     7
 48
25.4
100
AcDbCircle
 10
121.8204506777
 20
325.2916831535
 30
0.0
 40
49.68938976526252
100
AcDbArc
 50
163.7753701957
 51
180.0000000525
  0
ARC
  5
484
330
47B
100
AcDbEntity
  8
Default
  6
Continuous
 62
     7
 48
25.4
100
AcDbCircle
 10
121.8204506777
 20
325.2916831535
 30
0.0
 40
49.68938976526302
100
AcDbArc
 50
180.0
 51
189.2246298043
  0
TEXT
  5
485
330
47B
100
AcDbEntity
  8
Default
  6
Continuous
 62
     7
 48
25.4
100
AcDbText
 10
70.5960105997
 20
318.0923887953
 30
0.0
 40
4.0
  1
7°
 50
86.5
  7
SEACAD_arial_ttf
 11
66.603471406
 21
318.3365829534
 31
0.0
100
AcDbText
 73
     3
  0
TEXT
  5
486
330
47B
100
AcDbEntity
  8
Default
  6
Continuous
 62
     7
 48
25.4
100
AcDbText
 10
71.096077767
 20
326.2684147093
 30
0.0
 40
4.0
  1
7'30"
 50
86.5
  7
SEACAD_arial_ttf
 11
67.1035385733
 21
326.5126088675
 31
0.0
100
AcDbText
 73
     3
  0
ENDBLK
  5
488
330
47B
100
AcDbEntity
  8
0
100
AcDbBlockEnd
  0
ENDSEC
  0
SECTION
  2
ENTITIES
  0
INSERT
  5
2C
330
1F
100
AcDbEntity
  8
Default
100
AcDbBlockReference
  2
SEANNOT_GROUP
 10
0.0
 20
0.0
 30
0.0
  0
INSERT
  5
36
330
1F
100
AcDbEntity
  8
Default
100
AcDbBlockReference
  2
SEANNOT_GROUP1
 10
0.0
 20
0.0
 30
0.0
  0
INSERT
  5
41
330
1F
100
AcDbEntity
  8
Default
100
AcDbBlockReference
  2
SEANNOT_GROUP2
 10
0.0
 20
0.0
 30
0.0
  0
INSERT
  5
4A
330
1F
100
AcDbEntity
  8
Default
100
AcDbBlockReference
  2
SEANNOT_GROUP3
 10
0.0
 20
0.0
 30
0.0
  0
INSERT
  5
53
330
1F
100
AcDbEntity
  8
Default
100
AcDbBlockReference
  2
SE
 10
0.0
 20
0.0
 30
0.0
  0
INSERT
  5
193
330
1F
100
AcDbEntity
  8
Default
100
AcDbBlockReference
  2
SE1
 10
0.0
 20
0.0
 30
0.0
  0
INSERT
  5
251
330
1F
100
AcDbEntity
  8
Default
100
AcDbBlockReference
  2
SE2
 10
0.0
 20
0.0
 30
0.0
  0
INSERT
  5
2DF
330
1F
100
AcDbEntity
  8
Default
100
AcDbBlockReference
  2
GDimGGroup
 10
0.0
 20
0.0
 30
0.0
  0
INSERT
  5
2EC
330
1F
100
AcDbEntity
  8
Default
100
AcDbBlockReference
  2
GDimGGroup1
 10
0.0
 20
0.0
 30
0.0
  0
INSERT
  5
2F8
330
1F
100
AcDbEntity
  8
Default
100
AcDbBlockReference
  2
GDimGGroup2
 10
0.0
 20
0.0
 30
0.0
  0
INSERT
  5
304
330
1F
100
AcDbEntity
  8
Default
100
AcDbBlockReference
  2
GDimGGroup3
 10
0.0
 20
0.0
 30
0.0
  0
INSERT
  5
310
330
1F
100
AcDbEntity
  8
Default
100
AcDbBlockReference
  2
GDimGGroup4
 10
0.0
 20
0.0
 30
0.0
  0
INSERT
  5
31C
330
1F
100
AcDbEntity
  8
Default
100
AcDbBlockReference
  2
GDimGGroup5
 10
0.0
 20
0.0
 30
0.0
  0
INSERT
  5
328
330
1F
100
AcDbEntity
  8
Default
100
AcDbBlockReference
  2
GDimGGroup6
 10
0.0
 20
0.0
 30
0.0
  0
INSERT
  5
334
330
1F
100
AcDbEntity
  8
Default
100
AcDbBlockReference
  2
GDimGGroup7
 10
0.0
 20
0.0
 30
0.0
  0
INSERT
  5
340
330
1F
100
AcDbEntity
  8
Default
100
AcDbBlockReference
  2
GDimGGroup8
 10
0.0
 20
0.0
 30
0.0
  0
INSERT
  5
34C
330
1F
100
AcDbEntity
  8
Default
100
AcDbBlockReference
  2
GDimGGroup9
 10
0.0
 20
0.0
 30
0.0
  0
INSERT
  5
358
330
1F
100
AcDbEntity
  8
Default
100
AcDbBlockReference
  2
GDimGGroup10
 10
0.0
 20
0.0
 30
0.0
  0
INSERT
  5
364
330
1F
100
AcDbEntity
  8
Default
100
AcDbBlockReference
  2
GDimGGroup11
 10
0.0
 20
0.0
 30
0.0
  0
INSERT
  5
36E
330
1F
100
AcDbEntity
  8
Default
100
AcDbBlockReference
  2
GDimGGroup12
 10
0.0
 20
0.0
 30
0.0
  0
INSERT
  5
379
330
1F
100
AcDbEntity
  8
Default
100
AcDbBlockReference
  2
GDimGGroup13
 10
0.0
 20
0.0
 30
0.0
  0
INSERT
  5
385
330
1F
100
AcDbEntity
  8
Default
100
AcDbBlockReference
  2
GDimGGroup14
 10
0.0
 20
0.0
 30
0.0
  0
INSERT
  5
391
330
1F
100
AcDbEntity
  8
Default
100
AcDbBlockReference
  2
GDimGGroup15
 10
0.0
 20
0.0
 30
0.0
  0
INSERT
  5
39D
330
1F
100
AcDbEntity
  8
Default
100
AcDbBlockReference
  2
GDimGGroup16
 10
0.0
 20
0.0
 30
0.0
  0
INSERT
  5
3A9
330
1F
100
AcDbEntity
  8
Default
100
AcDbBlockReference
  2
GDimGGroup17
 10
0.0
 20
0.0
 30
0.0
  0
INSERT
  5
3B4
330
1F
100
AcDbEntity
  8
Default
100
AcDbBlockReference
  2
GDimGGroup18
 10
0.0
 20
0.0
 30
0.0
  0
INSERT
  5
3C2
330
1F
100
AcDbEntity
  8
Default
100
AcDbBlockReference
  2
GDimGGroup19
 10
0.0
 20
0.0
 30
0.0
  0
INSERT
  5
3CD
330
1F
100
AcDbEntity
  8
Default
100
AcDbBlockReference
  2
GDimGGroup20
 10
0.0
 20
0.0
 30
0.0
  0
INSERT
  5
3D8
330
1F
100
AcDbEntity
  8
Default
100
AcDbBlockReference
  2
GDimGGroup21
 10
0.0
 20
0.0
 30
0.0
  0
INSERT
  5
3E3
330
1F
100
AcDbEntity
  8
Default
100
AcDbBlockReference
  2
GDimGGroup22
 10
0.0
 20
0.0
 30
0.0
  0
INSERT
  5
3F0
330
1F
100
AcDbEntity
  8
Default
100
AcDbBlockReference
  2
GDimGGroup23
 10
0.0
 20
0.0
 30
0.0
  0
INSERT
  5
3FD
330
1F
100
AcDbEntity
  8
Default
100
AcDbBlockReference
  2
GDimGGroup24
 10
0.0
 20
0.0
 30
0.0
  0
INSERT
  5
40B
330
1F
100
AcDbEntity
  8
Default
100
AcDbBlockReference
  2
GDimGGroup25
 10
0.0
 20
0.0
 30
0.0
  0
INSERT
  5
418
330
1F
100
AcDbEntity
  8
Default
100
AcDbBlockReference
  2
GDimGGroup26
 10
0.0
 20
0.0
 30
0.0
  0
INSERT
  5
426
330
1F
100
AcDbEntity
  8
Default
100
AcDbBlockReference
  2
GDimGGroup27
 10
0.0
 20
0.0
 30
0.0
  0
INSERT
  5
434
330
1F
100
AcDbEntity
  8
Default
100
AcDbBlockReference
  2
GDimGGroup28
 10
0.0
 20
0.0
 30
0.0
  0
INSERT
  5
440
330
1F
100
AcDbEntity
  8
Default
100
AcDbBlockReference
  2
GDimGGroup29
 10
0.0
 20
0.0
 30
0.0
  0
INSERT
  5
44C
330
1F
100
AcDbEntity
  8
Default
100
AcDbBlockReference
  2
GDimGGroup30
 10
0.0
 20
0.0
 30
0.0
  0
INSERT
  5
458
330
1F
100
AcDbEntity
  8
Default
100
AcDbBlockReference
  2
GDimGGroup31
 10
0.0
 20
0.0
 30
0.0
  0
INSERT
  5
464
330
1F
100
AcDbEntity
  8
Default
100
AcDbBlockReference
  2
GDimGGroup32
 10
0.0
 20
0.0
 30
0.0
  0
INSERT
  5
470
330
1F
100
AcDbEntity
  8
Default
100
AcDbBlockReference
  2
GDimGGroup33
 10
0.0
 20
0.0
 30
0.0
  0
INSERT
  5
47C
330
1F
100
AcDbEntity
  8
Default
100
AcDbBlockReference
  2
GDimGGroup34
 10
0.0
 20
0.0
 30
0.0
  0
LINE
  5
48A
330
1F
100
AcDbEntity
  8
BORDER
  6
Continuous
 62
     7
 48
25.4
100
AcDbLine
 10
6.2292620399
 20
410.0
 30
0.0
 11
586.2292620399
 21
410.0
 31
0.0
  0
LINE
  5
48B
330
1F
100
AcDbEntity
  8
BORDER
  6
Continuous
 62
     7
 48
25.4
100
AcDbLine
 10
6.2292620399
 20
410.0
 30
0.0
 11
6.2292620399
 21
10.0
 31
0.0
  0
LINE
  5
48C
330
1F
100
AcDbEntity
  8
BORDER
  6
Continuous
 62
     7
 48
25.4
100
AcDbLine
 10
6.2292620399
 20
10.0
 30
0.0
 11
586.2292620399
 21
10.0
 31
0.0
  0
LINE
  5
48D
330
1F
100
AcDbEntity
  8
BORDER
  6
Continuous
 62
     7
 48
25.4
100
AcDbLine
 10
586.2292620399
 20
10.0
 30
0.0
 11
586.2292620399
 21
410.0
 31
0.0
  0
LINE
  5
48E
330
1F
100
AcDbEntity
  8
Default
  6
Continuous
 62
     7
 48
25.4
100
AcDbLine
 10
3.7292620399
 20
412.5
 30
0.0
 11
588.7292620399
 21
412.5
 31
0.0
  0
LINE
  5
48F
330
1F
100
AcDbEntity
  8
Default
  6
Continuous
 62
     7
 48
25.4
100
AcDbLine
 10
588.7292620399
 20
412.5
 30
0.0
 11
588.7292620399
 21
7.5
 31
0.0
  0
LINE
  5
490
330
1F
100
AcDbEntity
  8
Default
  6
Continuous
 62
     7
 48
25.4
100
AcDbLine
 10
588.7292620399
 20
7.5
 30
0.0
 11
3.7292620399
 21
7.5
 31
0.0
  0
LINE
  5
491
330
1F
100
AcDbEntity
  8
Default
  6
Continuous
 62
     7
 48
25.4
100
AcDbLine
 10
3.7292620399
 20
7.5
 30
0.0
 11
3.7292620399
 21
412.5
 31
0.0
  0
TEXT
  5
492
330
1F
100
AcDbEntity
  8
Default
  6
Continuous
 62
     7
 48
25.4
100
AcDbText
 10
473.5242219525
 20
28.1561611714
 30
0.0
 40
5.0
  1
TITLE :
  7
SEACAD_arial_ttf
 11
473.5242219525
 21
33.1561611714
 31
0.0
100
AcDbText
 73
     3
  0
TEXT
  5
493
330
1F
100
AcDbEntity
  8
Default
  6
Continuous
 62
     7
 48
25.4
100
AcDbText
 10
473.4498030642
 20
40.2710242694
 30
0.0
 40
5.0
  1
KITAGAWA EUROPE LIMITED
  7
SEACAD_arial_ttf
 11
473.4498030642
 21
45.2710242694
 31
0.0
100
AcDbText
 73
     3
  0
TEXT
  5
494
330
1F
100
AcDbEntity
  8
Default
  6
Continuous
 62
     7
 48
25.4
100
AcDbText
 10
474.0233693351
 20
14.6180387033
 30
0.0
 40
5.0
  1
www.kitagawaeurope.com
  7
SEACAD_arial_ttf
 11
474.0233693351
 21
19.6180387033
 31
0.0
100
AcDbText
 73
     3
  0
TEXT
  5
495
330
1F
100
AcDbEntity
  8
Default
  6
Continuous
 62
     7
 48
25.4
100
AcDbText
 10
497.8463064412
 20
27.8559210467
 30
0.0
 40
5.0
  1
BL212A6 POWER CHUCK
  7
SEACAD_arial_ttf
 11
497.8463064412
 21
32.8559210467
 31
0.0
100
AcDbText
 73
     3
  0
LINE
  5
496
330
1F
100
AcDbEntity
  8
Default
  6
Continuous
 62
     7
 48
25.4
100
AcDbLine
 10
471.5030858285
 20
50.0
 30
0.0
 11
586.2292620399
 21
50.0
 31
0.0
  0
LINE
  5
497
330
1F
100
AcDbEntity
  8
Default
  6
Continuous
 62
     7
 48
25.4
100
AcDbLine
 10
471.5030858285
 20
36.7
 30
0.0
 11
586.2292620399
 21
36.7
 31
0.0
  0
LINE
  5
498
330
1F
100
AcDbEntity
  8
Default
  6
Continuous
 62
     7
 48
25.4
100
AcDbLine
 10
586.2292620399
 20
23.4
 30
0.0
 11
471.5030858285
 21
23.4
 31
0.0
  0
LINE
  5
499
330
1F
100
AcDbEntity
  8
Default
  6
Continuous
 62
     7
 48
25.4
100
AcDbLine
 10
471.5030858285
 20
50.0
 30
0.0
 11
471.5030858285
 21
10.0
 31
0.0
  0
ENDSEC
  0
SECTION
  2
OBJECTS
  0
DICTIONARY
  5
C
330
0
100
AcDbDictionary
281
     1
  3
ACAD_GROUP
350
D
  3
ACAD_LAYOUT
350
1A
  3
ACAD_MLINESTYLE
350
17
  3
ACAD_PLOTSETTINGS
350
19
  3
ACAD_PLOTSTYLENAME
350
E
  0
DICTIONARY
  5
D
102
{ACAD_REACTORS
330
C
102
}
330
C
100
AcDbDictionary
281
     1
  0
DICTIONARY
  5
1A
102
{ACAD_REACTORS
330
C
102
}
330
C
100
AcDbDictionary
281
     1
  3
Layout1
350
1E
  3
Model
350
22
  0
DICTIONARY
  5
17
102
{ACAD_REACTORS
330
C
102
}
330
C
100
AcDbDictionary
281
     1
  3
Standard
350
18
  0
DICTIONARY
  5
19
102
{ACAD_REACTORS
330
C
102
}
330
C
100
AcDbDictionary
281
     1
  0
ACDBDICTIONARYWDFLT
  5
E
102
{ACAD_REACTORS
330
C
102
}
330
C
100
AcDbDictionary
281
     1
  3
Normal
350
F
100
AcDbDictionaryWithDefault
340
F
  0
LAYOUT
  5
1E
102
{ACAD_REACTORS
330
1A
102
}
330
1A
100
AcDbPlotSettings
  1

  2

  4

  6

 40
0.0
 41
0.0
 42
0.0
 43
0.0
 44
0.0
 45
0.0
 46
0.0
 47
0.0
 48
0.0
 49
0.0
140
0.0
141
0.0
142
1.0
143
1.0
 70
   688
 72
     0
 73
     0
 74
     5
  7

 75
    16
147
1.0
148
0.0
149
0.0
100
AcDbLayout
  1
Layout1
 70
     1
 71
     1
 10
0.0
 20
0.0
 11
594.0
 21
420.0
 12
0.0
 22
0.0
 32
0.0
 14
0.0
 24
0.0
 34
0.0
 15
594.0
 25
420.0
 35
0.0
146
0.0
 13
0.0
 23
0.0
 33
0.0
 16
1.0
 26
0.0
 36
0.0
 17
0.0
 27
1.0
 37
0.0
 76
     0
330
1B
  0
LAYOUT
  5
22
102
{ACAD_REACTORS
330
1A
102
}
330
1A
100
AcDbPlotSettings
  1

  2

  4

  6

 40
0.0
 41
0.0
 42
0.0
 43
0.0
 44
0.0
 45
0.0
 46
0.0
 47
0.0
 48
0.0
 49
0.0
140
0.0
141
0.0
142
1.0
143
1.0
 70
  1712
 72
     0
 73
     0
 74
     0
  7

 75
     0
147
1.0
148
0.0
149
0.0
100
AcDbLayout
  1
Model
 70
     1
 71
     0
 10
0.0
 20
0.0
 11
594.0
 21
420.0
 12
0.0
 22
0.0
 32
0.0
 14
0.0
 24
0.0
 34
0.0
 15
594.0
 25
420.0
 35
0.0
146
0.0
 13
0.0
 23
0.0
 33
0.0
 16
1.0
 26
0.0
 36
0.0
 17
0.0
 27
1.0
 37
0.0
 76
     0
330
1F
  0
MLINESTYLE
  5
18
102
{ACAD_REACTORS
330
17
102
}
330
17
100
AcDbMlineStyle
  2
Standard
 70
     0
  3

 62
   256
 51
90.0
 52
90.0
 71
     2
 49
0.5
 62
   256
  6
BYLAYER
 49
-0.5
 62
   256
  6
BYLAYER
  0
ACDBPLACEHOLDER
  5
F
102
{ACAD_REACTORS
330
E
102
}
330
E
  0
ENDSEC
  0
EOF
